Pachtaoge

Guitar - (Tabs)

Intro solo 

E|--------------------------------------------------8-----------------------------

B|--------------------8--9--11----11----11----9--11----9--11-11-----8h-9p8--------

G|--------------8--10-------------------------------------------------------10----

D|-----8--10-11-------------------------------------------------------------------

A|--11----------------------------------------------------------------------------

E|--------------------------------------------------------------------------------   


E|--------------------------------------------

B|--------------------------------------------

G|--8--10-8-----8-----------------------------

D|-----------11----11-10-11-10-8--------------

A|--------------------------------11-10-8-----

E|-------------------------------------------- 


Ho mujhe chhod kar jo tum jaaoge 

E|-----------------------------------------------------------------

B|----------------------------------------------------------------- 

G|---3/5--6--5---6/10-10-10-10h11p10-10--3/5--6--5---6/10-6--5----- 

D|----------------------------------------------------------------- 

A|-----------------------------------------------------------------

E|----------------------------------------------------------------- 


Jo tum jaaoge, Jo tum jaaoge

E|--------------------------------------------------------

B|--------------------------------------------------------

G|---5p3-------------------------------------------------- 

D|--------5---5/6--6--6---6/8---6\5---5h-6p5--3-----3----- 

A|-------------------------------------------------------- 

E|--------------------------------------------------------   


Ho mujhe chhod kar jo tum jaaoge 

E|----------------------------------------------------------------- 

B|----------------------------------------------------------------- 

G|---3/5--6--5---6/10-10-10-10h11p10-10--3/5--6--5---6/10-6--5----- 

D|----------------------------------------------------------------- 

A|----------------------------------------------------------------- 

E|-----------------------------------------------------------------  


Bada pachtaoge, bada pachtaoge

E|-----------------------------------------------------------

B|----------------------------------------------------------- 

G|-----5--3--5---5/6--6---6/10----10-10-10\6---6\5--5--5----- 

D|----------------------------------------------------------- 

A|----------------------------------------------------------- 

E|-----------------------------------------------------------  


Bada pachtaoge, bada pachtaoge 

E|----------------------------------------------------------- 

B|----------------------------------------------------------- 

G|-----5--3--5---5/6--6---6/10----10-10-10\6---6\5--5--5----- 

D|----------------------------------------------------------- 

A|----------------------------------------------------------- 

E|-----------------------------------------------------------  


Sunniya sunniya galliyan de vich rol na deyin 

E|-------------------------------------------------------------------- 

B|-------------------------------------------------------------------- 

G|-----------5--5--5--5--------5--5--5--5---3/5--8--6---5h-6p5--3----- 

D|-----3--3--------------3--3----------------------------------------- 

A|-------------------------------------------------------------------- 

E|--------------------------------------------------------------------  


Boohe kise hor layi tu khol na deyi 

E|-------------------------------------------------------------------- 

B|-------------------------------------------------------------------- 

G|-----------5--5--5--5--------5--5--5--5---3/5--8--6---5h-6p5--3----- 

D|-----3--3--------------3--3----------------------------------------- 

A|-------------------------------------------------------------------- 

E|--------------------------------------------------------------------  


Ho shayar Jaani nu je rulaaoge 

E|----------------------------------------------------- 

B|----------------------------------------------------- 

G|---3/5--6--5---6/10-10-----3/5--6--5---6/10-6--5----- 

D|----------------------------------------------------- 

A|----------------------------------------------------- 

E|-----------------------------------------------------   


Bada pachtaoge, bada pachtaoge 

E|----------------------------------------------------------- 

B|----------------------------------------------------------- 

G|-----5--3--5---5/6--6---6/10----10-10-10\6---6\5--5--5----- 

D|----------------------------------------------------------- 

A|----------------------------------------------------------- 

E|-----------------------------------------------------------  


Solo E|--8--6--8--6--------------8--6--8--6----------------- 

B|--------------9--8-----9--------------9--8-----9----- 

G|----------------------------------------------------- 

D|----------------------------------------------------- 

A|----------------------------------------------------- 

E|-----------------------------------------------------   


E|-----6--4--6--4---3h-4p3-------------- 

B|--------------------------6-----8----- 

G|-------------------------------------- 

D|-------------------------------------- 

A|-------------------------------------- 

E|--------------------------------------   


E|----------------------------------------- 

B|-----9--8--9--8---6\4--4--6--4----------- 

G|--------------------------------6--5----- 

D|----------------------------------------- 

A|----------------------------------------- 

E|-----------------------------------------   


E|--8--6--8--6--------------8--6--8--6----------------- 

B|--------------9--8-----9--------------9--8-----9----- 

G|----------------------------------------------------- 

D|----------------------------------------------------- 

A|----------------------------------------------------- 

E|-----------------------------------------------------   


E|-----6--4--6--4---3h-4p3-------------- 

B|--------------------------6-----8----- 

G|-------------------------------------- 

D|-------------------------------------- 

A|-------------------------------------- 

E|--------------------------------------   


E|--------------------------------6--8--9--8----- 

B|--9--8--9--8--8---6\5--6--8--9----------------- 

G|----------------------------------------------- 

D|----------------------------------------------- 

A|----------------------------------------------- 

E|-----------------------------------------------   


E|--------------6-----------------6--8--9--9---8h-9p8-------- 

B|-----6--8--9-----9--8-----8--9-----------------------11---- 

G|----------------------------------------------------------- 

D|----------------------------------------------------------- 

A|----------------------------------------------------------- 

E|-----------------------------------------------------------   


E|--8----------------------------- 

B|-----11-9--8-------------------- 

G|--------------10-9-------------- 

D|--------------------11-10------- 

A|-------------------------------- 

E|--------------------------------  

Tere bina zindagi guzarenge kivein 

E|----------------------------------------------------- 

B|---4/6--6---6/8--8---8/9--9--9-----------6--4-------- 

G|---------------------------------3/6--6--------6--5-- 

D|----------------------------------------------------- 

A|----------------------------------------------------- 

E|-----------------------------------------------------  


Jaan jaan kihnu pukarenge kivein 

E|----------------------------------------------------- 

B|---4/6--6---6/8--8---8/9--9--9-----------6--4-------- 

G|---------------------------------3/6--6--------6--5-- 

D|----------------------------------------------------- 

A|----------------------------------------------------- 

E|-----------------------------------------------------  


Karoge je karoge je daga karoge 

E|-------------------------------------------------------------------- 

B|-------------------------------------------------------------------- 

G|--------5--5--5--5--------5--5--5--5---3/5--5--8--6---5h-6p5-------- 

D|--3--3--------------3--3--------------------------------------8----- 

A|-------------------------------------------------------------------- 

E|--------------------------------------------------------------------  


Sadde waali maut tussi vi te maroge 

E|-------------------------------------------------------------------- 

B|-------------------------------------------------------------------- 

G|--------5--5--5--5--------5--5--5--5---3/5--5--8--6---5h-6p5-------- 

D|--3--3--------------3--3--------------------------------------8----- 

A|-------------------------------------------------------------------- 

E|--------------------------------------------------------------------  


O Allah vekhda, zulm kamaoge 

E|----------------------------------------------------- 

B|----------------------------------------------------- 

G|---3/5--6--5---6/10-10-----3/5--6--5---6/10-6--5----- 

D|----------------------------------------------------- 

A|----------------------------------------------------- 

E|-----------------------------------------------------   


Bada pachtaoge, bada pachtaoge 

E|----------------------------------------------------------- 

B|----------------------------------------------------------- 

G|-----5--3--5---5/6--6---6/10----10-10-10\6---6\5--5--5----- 

D|----------------------------------------------------------- 

A|----------------------------------------------------------- 

E|-----------------------------------------------------------  


Mujhse jo nazrein churane lage ho 

E|-------------------------------------------------------------- 

B|---6/9--9--9---9/11-9---6/9--9--9--9---9/11-9---8h-9p8--6----- 

G|-------------------------------------------------------------- 

D|-------------------------------------------------------------- 

A|-------------------------------------------------------------- 

E|--------------------------------------------------------------  


Lagta hai koi aur gali jaane lage ho 

E|----------------------------------------------------- 

B|---6/8--8--8--9--8--8--8--9--8--8--8---8h-9p8--8----- 

G|----------------------------------------------------- 

D|----------------------------------------------------- 

A|----------------------------------------------------- 

E|-----------------------------------------------------  


Khwab jo dekhe hum dono ne milke 

E|----------------------------------------------------- 

B|---6/9--9--9---9/13-13-----6/9--9--9--9---9/13-13---- 

G|----------------------------------------------------- 

D|----------------------------------------------------- 

A|----------------------------------------------------- 

E|-----------------------------------------------------  


Dheere dheere kyun dafnaane lage ho 

E|----------------------------------------------------- 

B|---6/8--8--8--9--8--8--8--9--8--8--8---8h-9p8--8----- 

G|----------------------------------------------------- 

D|----------------------------------------------------- 

A|----------------------------------------------------- 

E|-----------------------------------------------------   


Kar na tu hor barbaad chhad de 

E|-------------------------------------------------------------------- 

B|-------------------------------------------------------------------- 

G|-----------5--5--5--5--------5--5--5--5---3/5--8--6---5h-6p5--3----- 

D|-----3--3--------------3--3----------------------------------------- 

A|-------------------------------------------------------------------- 

E|--------------------------------------------------------------------


Rohndeya da lena swaad chhad de


E|-------------------------------------------------------------------- 


B|-------------------------------------------------------------------- 


G|-----------5--5--5--5--------5--5--5--5---3/5--8--6---5h-6p5--3----- 


D|-----3--3--------------3--3----------------------------------------- 

A|-------------------------------------------------------------------- 

E|--------------------------------------------------------------------


Je saanu pyaar layi ehna tarsaaoge

E|----------------------------------------------------------------- 

B|----------------------------------------------------------------- 

G|---3/5--6--5---6/10-10-10-10h11p10-10--3/5--6--5---6/10-6--5----- 

D|----------------------------------------------------------------- 

A|----------------------------------------------------------------- 

E|-----------------------------------------------------------------  


Bada Pachtaoge, Bada Pachtaoge.

E|----------------------------------------------------------- 

B|----------------------------------------------------------- 

G|-----5--3--5---5/6--6---6/10----10-10-10\6---6\5--5--5----- 

D|----------------------------------------------------------- 

A|----------------------------------------------------------- 

E|-----------------------------------------------------------  

our own text, style it and press Done.