Love Me Like You Do tab

 by Ellie Goulding

[Verse 1]


e|---------------------------------------------------------------------------------------|

B|---------------------------------------------------------------------------------------|

G|-5—8—8----------------5—8—8----------------5—8—8—6—6—5—3-------------------------------|

D|---------------------------------------------------------------------------------------|

A|---------------------------------------------------------------------------------------|

E|---------------------------------------------------------------------------------------|

  You're the light...you're the night...You're the color of my blood


e|----------------------------------------------------------------------------------------|

B|----------------------------------------------------------------------------------------|

G|-------5—8—8--------------5—8—8-----------5—8—8—6—6—5—3--1—3\5--------------------------|

D|----------------------------------------------------------------------------------------|

A|----------------------------------------------------------------------------------------|

E|----------------------------------------------------------------------------------------|

 You're the cure….you're the pain….You're the only thing I wanna touch


e|----------------------------------------------------------------------------------------|

B|---------9—8/6—6--------------------4\6-------4—4\6-------------------------------------|

G|--8—8---------------------8—8—5---------------------------------------------------------|

D|----------------------------------------------------------------------------------------|

A|----------------------------------------------------------------------------------------|

E|----------------------------------------------------------------------------------------|

 Never knew that it could mean so much, so much



[Verse 2]


e|----------------------------------------------------------------------------------------|

B|----------------------------------------------------------------------------------------|

G|--5—8—8-------5—8—8-------5—8—8—6—6—5—3-------------------------------------------------|

D|----------------------------------------------------------------------------------------|

A|----------------------------------------------------------------------------------------|

E|----------------------------------------------------------------------------------------|

 You're the fear….I don't care….'Cause I've never been so high


e|----------------------------------------------------------------------------------------|

B|----------------------------------------------------------------------------------------|

G|-------5—8—8--------------5—8—8-----------5—8—8—6—6—5—3--1—3\5--------------------------|

D|----------------------------------------------------------------------------------------|

A|----------------------------------------------------------------------------------------|

E|----------------------------------------------------------------------------------------|

  Follow Me…....to the dark…...Let me take you past our satellites


e|----------------------------------------------------------------------------------------|

B|---------9—8/6—6--------------------4\6-------4—4\6-------------------------------------|

G|--8—8---------------------8—8—5---------------------------------------------------------|

D|----------------------------------------------------------------------------------------|

A|----------------------------------------------------------------------------------------|

E|----------------------------------------------------------------------------------------|

  You can see the world you brought to life, to life



[Chorus]


e|----4—6—6—6—4—4----------------6—6—6—6—6—4—4--------------------------------------------|

B|----------------------------------------------------------------------------------------|

G|----------------------------------------------------------------------------------------|

D|----------------------------------------------------------------------------------------|

A|----------------------------------------------------------------------------------------|

E|----------------------------------------------------------------------------------------|

  So love me like you do….lo-lo-love me like you do


e|--6—6—6—4—4-----6—6—6—6—8---------------------------------------------------------------|

B|----------------------------9—9---------------------------------------------------------|

G|----------------------------------------------------------------------------------------|

D|----------------------------------------------------------------------------------------|

A|----------------------------------------------------------------------------------------|

E|----------------------------------------------------------------------------------------|

  Love like you do….lo-lo-love me like you do


e|--6—6—6—4—4-----6—6—6—6—6—4—4------------------6—8—8—6—6--------------------------------|

B|-------------------------------6----------9---------------------------------------------|

G|----------------------------------------------------------------------------------------|

D|----------------------------------------------------------------------------------------|

A|----------------------------------------------------------------------------------------|

E|----------------------------------------------------------------------------------------|

  Touch me like you do….to-to-touch like you do...what are you waiting for?



[Verse 3]


e|----------------------------------------------------------------------------------------|

B|----------------------------------------------------------------------------------------|

G|--5—8—8-------5—8—8-------5—8—8—6—6—5—3-------------------------------------------------|

D|----------------------------------------------------------------------------------------|

A|----------------------------------------------------------------------------------------|

E|----------------------------------------------------------------------------------------|

  Fading in….Fading out….On the edge of paradise


e|----------------------------------------------------------------------------------------|

B|----------------------------------------------------------------------------------------|

G|-------5—8—8--------------5—8—8-----------5—8—8—6—6—5—3--1—3\5--------------------------|

D|----------------------------------------------------------------------------------------|

A|----------------------------------------------------------------------------------------|

E|----------------------------------------------------------------------------------------|

  Every inch….of your skin….is a holy gray I’ve got to find


e|----------------------------------------------------------------------------------------|

B|---------9—8/6—6--------------------4\6-------4—4\6-------------------------------------|

G|--8—8---------------------8—8—5---------------------------------------------------------|

D|----------------------------------------------------------------------------------------|

A|----------------------------------------------------------------------------------------|

E|----------------------------------------------------------------------------------------|

  Only you can set my heart on fire….on fire



[Bridge]


e|-------11----------------------------------------------11-------------------------------|

B|------------11—13---------11—13 ----------------------------11—13----------11-----------|

G|--8—8----------------13----------------------------8-----------------13---------13------|

D|----------------------------------------------------------------------------------------|

A|----------------------------------------------------------------------------------------|

E|----------------------------------------------------------------------------------------|

  Yeah…I’ll let you set the pace……….….’Cause….I’m not thinking straight


e|-------11--------------------------------------------------------6—8—8—6—6--------------|

B|-----------11—13---------11-----------------------------------9-------------------------|

G|---8---------------13---------10--13--8--10-------5—3—5---------------------------------|

D|----------------------------------------------------------------------------------------|

A|----------------------------------------------------------------------------------------|

E|----------------------------------------------------------------------------------------|

  My head’s spinning around I can’t see clear no more…What are you waiting for?



[Chorus]


e|----4—6—6—6—4—4----------------6—6—6—6—6—4—4--------------------------------------------|

B|----------------------------------------------------------------------------------------|

G|----------------------------------------------------------------------------------------|

D|----------------------------------------------------------------------------------------|

A|----------------------------------------------------------------------------------------|

E|----------------------------------------------------------------------------------------|

  So love me like you do….lo-lo-love me like you do


e|--6—6—6—4—4-----6—6—6—6—8---------------------------------------------------------------|

B|----------------------------9—9---------------------------------------------------------|

G|----------------------------------------------------------------------------------------|

D|----------------------------------------------------------------------------------------|

A|----------------------------------------------------------------------------------------|

E|----------------------------------------------------------------------------------------|

  Love like you do….lo-lo-love me like you do


e|--6—6—6—4—4-----6—6—6—6—6—4—4------------------6—8—8—6—6--------------------------------|

B|-------------------------------6----------9---------------------------------------------|

G|----------------------------------------------------------------------------------------|

D|----------------------------------------------------------------------------------------|

A|----------------------------------------------------------------------------------------|

E|----------------------------------------------------------------------------------------|

  Touch me like you do….to-to-touch like you do...what are you waiting for?



[Bridge]


e|-------11----------------------------------------------11-------------------------------|

B|------------11—13---------11—13 ----------------------------11—13----------11-----------|

G|--8—8----------------13----------------------------8-----------------13---------13------|

D|----------------------------------------------------------------------------------------|

A|----------------------------------------------------------------------------------------|

E|----------------------------------------------------------------------------------------|

 I’ll let you set the pace……………………….’Cause I’m not thinking straight


e|-------11--------------------------------------------------------6—8—8—6—6--------------|

B|-----------11—13---------11-----------------------------------9-------------------------|

G|---8---------------13---------10--13--8--10-------5—3—5---------------------------------|

D|----------------------------------------------------------------------------------------|

A|----------------------------------------------------------------------------------------|

E|----------------------------------------------------------------------------------------|

  My head’s spinning around I can’t see clear no more…What are you waiting for?



[Chorus]


e|----4—6—6—6—4—4----------------6—6—6—6—6—4—4--------------------------------------------|

B|----------------------------------------------------------------------------------------|

G|----------------------------------------------------------------------------------------|

D|----------------------------------------------------------------------------------------|

A|----------------------------------------------------------------------------------------|

E|----------------------------------------------------------------------------------------|

  So love me like you do….lo-lo-love me like you do


e|--6—6—6—4—4-----6—6—6—6—8---------------------------------------------------------------|

B|----------------------------9—9---------------------------------------------------------|

G|----------------------------------------------------------------------------------------|

D|----------------------------------------------------------------------------------------|

A|----------------------------------------------------------------------------------------|

E|----------------------------------------------------------------------------------------|

  Love like you do….lo-lo-love me like you do


e|--6—6—6—4—4-----6—6—6—6—6—4—4------------------6—8—8—6—6--------------------------------|

B|-------------------------------6----------9---------------------------------------------|

G|----------------------------------------------------------------------------------------|

D|----------------------------------------------------------------------------------------|

A|----------------------------------------------------------------------------------------|

E|----------------------------------------------------------------------------------------|

  Touch me like you do….to-to-touch like you do...what are you waiting for?


************************************


| /   slide up

| \   slide down

| h   hammer-on

| p   pull-off

| ~   vibrato

| +   harmonic

| x   Mute note

| b   Bend

| pb  Pre-bend

| br  Bend release

| pbr Pre-bend release

| brb Bend release bend