Happier tab

 by Marshmello

[Intro]


e|--------------------|----------------------|-------------------------|

B|--------------------|--------3--1----------|----------3--1-----------|

G|--2--0---2--0---2--0|--0-----------2--0----|-0--2--2--------2--0-----|

D|--------------------|-----3--------------3-|-----------------------3-|

A|--------------------|----------------------|-------------------------|

E|--------------------|----------------------|-------------------------|


e|---------------------------|

B|---------------------------|

G|--0--2--2-------------0----|you kinda like merge the ending of the intto into the verse.

D|-----------3---3-3-3-------|

A|---------------------------|

E|---------------------------|



[Verse]


e|----------------------|---------------------------------|

B|----------------------|----1--1--1----------------------|

G|-------------------0--|-------------2--2--2---0--0------|

D|--3----3--3--3--3-----|--2------------------------------|

A|----------------------|---------------------------------|

E|----------------------|---------------------------------|


e|------------------------------|----------------------|--------------------------|

B|------------------------------|----------------------|--------------------------|

G|--0-------------------------0-|--(0)---------------0-|-----------------------0--|

D|------3-3-3-3---0--3--0--3----|------3----3--3--3----|--3----3--3--3--3--3------|

A|------------------------------|----------------------|--------------------------|

E|------------------------------|----------------------|--------------------------|


e|-----------------------------|-------------------------------|-----------------|

B|-----1--1--1-----------------|-------------------------------|--------------1--|

G|--------------2--2--2---0--0-|--0--------------------------0-|--(0)------------|

D|--2--------------------------|-----3--3--3--3--0--3--0--3----|-------3---------|

A|-----------------------------|-------------------------------|-----------------|

E|-----------------------------|-------------------------------|-----------------|


[Chorus]


e|------------------------|--------0-------|-----------0-------|-----------------|

B|--3----1--3----1--3---1-|--1--3-----3--1-|--------3-----3--1-|--------------1--|

G|------------------------|----------------|--2--0-------------|--2--0-----------|

D|------------------------|----------------|-------------------|--------3--------|

A|------------------------|----------------|-------------------|-----------------|

E|------------------------|----------------|-------------------|-----------------|


e|---------------------|--------0-------|-----------0-------|-----------|----------------|

B|--3----1--3--1--3--1-|--1--3-----3--1-|--------3-----3--1-|-----------|----------------|

G|---------------------|----------------|--2--0-------------|--2--0-----|-----------0--2-|

D|---------------------|----------------|-------------------|--------3--|--3--3--3-------|

A|---------------------|----------------|-------------------|-----------|----------------|

E|---------------------|----------------|-------------------|-----------|----------------|


e|----------------|-----------0-------|----------------|----------------|----------------------|

B|-----------1----|--------3-----3--1-|----------------|----------------|--------3--1----------|

G|--------------2-|-------------------|--2--0----------|--2-0--2-0--2-0-|--0-----------2--0----|

D|--3--3--3-------|--3--3--3----------|--------3--2----|----------------|-----3--------------3-|

A|----------------|-------------------|--------------3-|----------------|----------------------|

E|----------------|-------------------|----------------|----------------|----------------------|


e|-------------------------|--------------------------|

B|-----------3--1----------|--------------------------|

G|--0--2--2--------2--0----|--0--2--2----------------0|

D|-----------------------3-|-----------3----3--3--3---|

A|-------------------------|--------------------------|

E|-------------------------|--------------------------|


[Bridge]

e|------------------0--|--1---------3-|--0-----0--------1--1-|--5--------3--3--5--3-|-1----------0-|

B|---------------3-----|-----3--------|-----3-----3--1-------|----------------------|----3----3----|

G|--0--2--2------------|--------------|----------------------|----------------------|--------------|

D|-----------3---------|--------------|----------------------|----------------------|--------------|

A|---------------------|--------------|----------------------|----------------------|--------------|

E|---------------------|--------------|----------------------|----------------------|--------------|


e|--1--------3-|--0-----0--------1--1-|--5----3--3--5--3-|--1----|

B|-----3-------|-----3-----3--1-------|------------------|-----3-|

G|-------------|----------------------|------------------|-------|

D|-------------|----------------------|------------------|-------|

A|-------------|----------------------|------------------|-------|

E|-------------|----------------------|------------------|-------|


[Ending chorus]


e|--------------------|----------------------|-------------------------|--------------0-|

B|--------------------|--------3--1----------|----------3--1-----------|----------------|

G|--2--0---2--0---2--0|--0-----------2--0----|-0--2--2--------2--0-----|--0--2--0-------|

D|--------------------|-----3--------------3-|-----------------------3-|-----------3----|x2(Play the 0 on the

A|--------------------|----------------------|-------------------------|----------------|end of the second

E|--------------------|----------------------|-------------------------|----------------|time around)


e|--------------------|--------0--------|-----------0--------|----------------|

B|--3--1--3--1--3--1--|--1--3-----3--1--|--------3-----3--1--|----------------|

G|--------------------|-----------------|--2--0--------------|--2--0----------|

D|--------------------|-----------------|--------------------|--------3-------|x2

A|--------------------|-----------------|--------------------|----------------|

E|--------------------|-----------------|--------------------|----------------|


e|-----------------|-----------------|-----------0-------|-----------------|

B|-----------------|-----------1-----|--------3-----3--1-|-----------------|

G|-----------0--2--|--------------2--|-------------------|--2--0-----------|

D|--3--3--3--------|--3--3--3--------|--3--3--3----------|--------3--2-----| Go back to the top and only play

A|-----------------|-----------------|-------------------|--------------3--| once(2--0--2--0)then play outro

E|-----------------|-----------------|-------------------|-----------------|


[Outro]


e|--1---------3-|--0-----0--------1--1-|--5--------3--3--5--3-|-1-----|

B|-----3--------|-----3-----3--1-------|----------------------|----3--|

G|--------------|----------------------|----------------------|-------|

D|--------------|----------------------|----------------------|-------|

A|--------------|----------------------|----------------------|-------|

E|--------------|----------------------|----------------------|-------|


************************************


| (n) Ghost note


************************************