Darkside tab

 by Alan Walker

[verse 1]


e|-----7---|-------------|--------7----|------------------------------------------|

B|8-10---7-|----7-8------|-8--10----7--|---7-/-8~---------------------------------|

G|---------|-9-------9-7-|-------------|-7----------------------------------------|

D|---------|-------------|-------------|------------------------------------------|

A|---------|-------------|-------------|------------------------------------------|

E|---------|-------------|-------------|------------------------------------------|


e|-----7---|-------------|--------7----|------------------------------------------|

B|8-10---7-|----7-8------|-8--10----7--|---7/-8~----------------------------------|

G|---------|-9-------9-7-|-------------|-7----------------------------------------|

D|---------|-------------|-------------|------------------------------------------|

A|---------|-------------|-------------|------------------------------------------|

E|---------|-------------|-------------|------------------------------------------|



[Pre Chorus]


e|----------7-|------|--8-7--------|-----|----------------------------------------|

B|8-8--8-10---|------|-------10--7-|-----|----------------------------------------|

G|------------|-7--9-|-------------|--9--|----------------------------------------|

D|------------|------|-------------|-----|----------------------------------------|

A|------------|------|-------------|-----|----------------------------------------|

E|------------|------|-------------|-----|----------------------------------------|


e|----------7-|------|--8-7--------|----|---------|------7-|---------------------|

B|8-8--8-10---|------|-------10--7-|----|----7-8--|-8-10---|---------------------|

G|------------|-7--9-|-------------|--9-|(9)------|--------|---------------------|

D|------------|------|-------------|----|---------|--------|---------------------|

A|------------|------|-------------|----|---------|--------|---------------------|

E|------------|------|-------------|----|---------|--------|---------------------|


e|------7-8-7-------|-----------7-|-----|-8-7----------|-------------------------|

B|8-10--------10--8-|-8-8--8-10---|-----|------10-7----|-------------------------|

G|------------------|-------------|-7-9-|------------9-|-------------------------|

D|------------------|-------------|-----|--------------|-------------------------|

A|------------------|-------------|-----|--------------|-------------------------|

E|------------------|-------------|-----|--------------|-------------------------|



[Chorus 1]

e|----|-------7-|------|--8-7--------|----|---------------------------------------|

B|8-8-|-8-10----|------|-------10--7-|----|---------------------------------------|

G|----|---------|-7--9-|-------------|--9-|---------------------------------------|

D|----|---------|------|-------------|----|---------------------------------------|

A|----|---------|------|-------------|----|---------------------------------------|

E|----|---------|------|-------------|----|---------------------------------------|



e|----|-------7-|------|--8-7--------|----|--------|------7-|---------------------|

B|8-8-|-8-10----|------|-------10--7-|----|----7-8-|-8-10---|---------------------|

G|----|---------|-7--9-|-------------|-9--|(9)-----|--------|---------------------|

D|----|---------|------|-------------|----|--------|--------|---------------------|

A|----|---------|------|-------------|----|--------|--------|---------------------|

E|----|---------|------|-------------|----|--------|--------|---------------------|


e|------7-8-7-------|-----|------7-|------|--8-7----------|-----------------------|

B|8-10---------10-8-|-8-8-|-8-10---|------|-------10-7----|-----------------------|

G|------------------|-----|--------|-7--9-|-------------9-|-----------------------|

D|------------------|-----|--------|------|---------------|-----------------------|

A|------------------|-----|--------|------|---------------|-----------------------|

E|------------------------|--------|------|---------------|-----------------------|


[Verse 2]


e|-----7---|--------------|--------7---|----------|-------------------------------|

B|8-10---7-|----7-8-------|-8--10----7-|----7/-8~-|-------------------------------|

G|---------|-9--------9-7-|------------|-7--------|-------------------------------|

D|---------|--------------|------------|----------|-------------------------------|

A|---------|--------------|------------|----------|-------------------------------|

E|---------|--------------|------------|----------|-------------------------------|


e|------7---|-------------|--------7---|---------|--------------------------------|

B|8-10----7-|----7-8------|-8--10----7-|---7/-8~-|--------------------------------|

G|----------|-9-------9-7-|------------|-7-------|--------------------------------|

D|----------|-------------|------------|---------|--------------------------------|

A|----------|-------------|------------|---------|--------------------------------|

E|----------|-------------|------------|---------|--------------------------------|


e|-------|--------7-|--------7-8-7-------|--------|--------7-|-------7------------|

B|---7-8-|-8--10----|-8--10---------10-8-|----7-8-|-8--10----|-8--10-----7-7--7-8-|

G|9------|----------|--------------------|-9------|----------|--------------------|

D|-------|----------|--------------------|--------|----------|--------------------|

A|-------|----------|--------------------|--------|----------|--------------------|

E|-------|----------|--------------------|--------|----------|--------------------|


[Pre Chorus 2]


e|----------7-|------|--8-7--------|-----|----------------------------------------|

B|8-8--8-10---|------|-------10--7-|-----|----------------------------------------|

G|------------|-7--9-|-------------|--9--|----------------------------------------|

D|------------|------|-------------|-----|----------------------------------------|

A|------------|------|-------------|-----|----------------------------------------|

E|------------|------|-------------|-----|----------------------------------------|


e|----------7-|------|--8-7--------|----|---------|------7-|---------------------|

B|8-8--8-10---|------|-------10--7-|----|----7-8--|-8-10---|---------------------|

G|------------|-7--9-|-------------|--9-|(9)------|--------|---------------------|

D|------------|------|-------------|----|---------|--------|---------------------|

A|------------|------|-------------|----|---------|--------|---------------------|

E|------------|------|-------------|----|---------|--------|---------------------|


e|------7-8-7-------|-----------7-|-----|-8-7----------|-------------------------|

B|8-10--------10--8-|-8-8--8-10---|-----|------10-7----|-------------------------|

G|------------------|-------------|-7-9-|------------9-|-------------------------|

D|------------------|-------------|-----|--------------|-------------------------|

A|------------------|-------------|-----|--------------|-------------------------|

E|------------------|-------------|-----|--------------|-------------------------|



[Chorus 2]

e|----|-------7-|------|--8-7--------|----|--------------------------------------|

B|8-8-|-8-10----|------|-------10--7-|----|--------------------------------------|

G|----|---------|-7--9-|-------------|--9-|--------------------------------------|

D|----|---------|------|-------------|----|--------------------------------------|

A|----|---------|------|-------------|----|--------------------------------------|

E|----|---------|------|-------------|----|--------------------------------------|




e|----|-------7-|------|-8-7--------|---|--------|-------7-|---------------------|

B|8-8-|-8-10----|------|------10--7-|---|----7-8-|-8--10---|---------------------|

G|----|---------|-7--9-|------------|-9-|(9)-----|---------|---------------------|

D|----|---------|------|------------|---|--------|---------|---------------------|

A|----|---------|------|------------|---|--------|---------|---------------------|

E|----|---------|------|------------|---|--------|---------|---------------------|



e|-------7-8-7-------|-----|-------7-|------|-8--7----------|---------------------|

B|8--10---------10-8-|-8-8-|-8--10---|------|-------10-7----|---------------------|

G|-------------------|-----|---------|-7--9-|-------------9-|---------------------|

D|-------------------|-----|---------|------|---------------|---------------------|

A|-------------------|-----|---------|------|---------------|---------------------|

E|-------------------|-----|---------|------|---------------|---------------------|


[Outro]

e|----------7-|------|-8-7-------|-----|------------------------------------------|

B|8-8--8-10---|------|------10-7-|-----|------------------------------------------|

G|------------|-7--9-|-----------|--9--|------------------------------------------|

D|------------|------|-----------|-----|------------------------------------------|

A|------------|------|-----------|-----|------------------------------------------|

E|------------|------|-----------|-----|------------------------------------------|


e|----------7-|------|-8-7-------|---|-----|--------7-|----------------------------|

B|8-8--8-10---|------|------10-7-|---|-7-8-|--8--10---|----------------------------|

G|------------|-7--9-|-----------|-9-|-----|----------|----------------------------|

D|------------|------|-----------|---|-----|----------|----------------------------|

A|------------|------|-----------|---|-----|----------|----------------------------|

E|------------|------|-----------|---|-----|----------|----------------------------|


e|-------7-8-7------|------------7-|------|-8-7---------------|

B|8--10---------10-8|-8-8--8-10----|------|------10---7-------|

G|------------------|--------------|-7--9-|-----------------9~|

D|------------------|--------------|------|-------------------|

A|------------------|--------------|------|-------------------|

E|------------------|--------------|------|-------------------|




************************************


| /    Slide up

| ~    Vibrato

| (n)  Ghost note


************************************