Something Just Like This tab

 by The Chainsmokers & Coldplay

e|-----------5-----------5----|-----------------5--5-------|

B|--3--3--3-----3--3--3-------|--3--3--3--3--3-------------|

G|----------------------------|-----------------------6----|

D|--0--------------2----------|--4--------------2----------|

A|-----------------0----------|--2--------------0----------|

E|--3-------------------------|----------------------------|


e|-----------5-----------5----|----------------------------|

B|--3--3--3-----3--3--3-------|--3--3--3--3--3-------------|

G|----------------------------|-----------------6--6--6----|

D|--0--------------2----------|--4--------------2----------|

A|-----------------0----------|--2--------------0----------|

E|--3-------------------------|----------------------------|


e|--------------------5-------|----------------------------|

B|-----------3--3--3----------|--------------2--2--2--3----|

G|-----------------------6----|--7--------4----------------|

D|--0--------------2----------|--4-----------2-------------|

A|-----------------0----------|--2-----------0-------------|

E|--3-------------------------|----------------------------|


e|--------------------2-------|-----------------2--2--2----|

B|-----------3--3--3-----2----|--3--------3--3-------------|

G|----------------------------|----------------------------|

D|--0--------------2----------|--4--------------2----------|

A|-----------------0----------|--2--------------0----------|

E|--3-------------------------|----------------------------|


e|--3--------2-----------2----|--2L-------2-----------2----|

B|--------------5--5--5-------|--------------3--3--3-------|

G|----------------------------|----------------------------|

D|--0--------------2----------|--4-----------2-------------|

A|-----------------0----------|--2-----------0-------------|

E|--3-------------------------|----------------------------|


e|--2-------------------------|--------------2--2--5--5----|

B|-----5--5--5--5--3--5--3----|--3--------3----------------|

G|----------------------------|----------------------------|

D|--0--------------2----------|--4--------------2----------|

A|-----------------0----------|--2--------------0----------|

E|--3-------------------------|----------------------------|


e|--7-----7--7--7--5--5--3----|--2-----2--2--2--2--2--5----|

B|----------------------------|----------------------------|

G|--7-------------------------|----------------------------|

D|--0--------------2----------|--4--------------2----------|

A|-----------------0----------|--2--------------0----------|

E|--3-------------------------|----------------------------|


e|--5-----------------3--2----|--2-----------2--5--5--5----|

B|-----5--5--5--5--5----------|-----------3----------------|

G|----------------------------|----------------------------|

D|--0--------------2----------|--4--------------2----------|

A|-----------------0----------|--2--------------0----------|

E|--3-------------------------|----------------------------|


e|--7--------7--7--5--5--3----|--2--------2--2--2--2--2----|

B|-----------------------2----|--------3--------------2----|

G|--------2-------------------|----------------------------|

D|-----0--------------2-------|-----4--------------2-------|

A|-----------------0----------|--2--------------0----------|

E|--3-------------------------|----------------------------|


e|--2--0-----0--0--0--3--2----|--2-------------------------|

B|-----------------------2----|--------3--------------2----|

G|--------2-------------------|----------------------------|

D|-----0--------------2-------|-----4--------------2-------|

A|-----------------0----------|--2--------------0----------|

E|--3-------------------------|----------------------------|


e|-----------------------0--2--------0--2-------------|

B|--3-----3-----------3-----0-----3-----------2L-2----|

G|--------------2L-2----------------------------------|

D|--------0L-0--------0L-0--------------2L-2----------|

A|--------------------------------0L-0----------------|

E|--3L-3----------------------------------------------|


e|-----------------------0--2-----0-----0-------------|

B|--------------------3-----3L-3--------------2-------|

G|--------------4L-4--------------------------7-------|

D|--------4L-4--------4L-4--------------2L-2----------|

A|--2L-2--------------------------0L-0----------------|

E|----------------------------------------------------|


e|-----------------------0--2--------0--2-------------|

B|--3-----3-----------3-----0-----3-----------2L-2----|

G|--------------2L-2----------------------------------|

D|--------0L-0--------0L-0--------------2L-2----------|

A|--------------------------------0L-0----------------|

E|--3L-3----------------------------------------------|


e|-----------------------0--2-----0-----0-------------|

B|--------------------3-----3L-3--------------2-------|

G|--------------4L-4--------------------------7-------|

D|--------4L-4--------4L-4--------------2L-2----------|

A|--2L-2--------------------------0L-0----------------|

E|----------------------------------------------------|


e|--------------------10-12-14----10-12-14------------|

B|--------------------------0L-0--------------2L-2----|

G|--------------2L-2----------------------------------|

D|--------0L-0--------0L-0--------------2L-2----------|

A|--------------------------------0L-0----------------|

E|--3L-3----------------------------------------------|


e|--------------------10-12-14----12----12----10------|

B|--------------------------3L-3--------------2L-2----|

G|--------------4L-4----------------------------------|

D|--------4L-4--------4L-4--------------2L-2----------|

A|--2L-2--------------------------0L-0----------------|

E|----------------------------------------------------|


e|-----------5-----------5----|-----------------5--5-------|

B|--3--3--3-----3--3--3-------|--3--3--3--3--3-------------|

G|----------------------------|-----------------------6----|

D|--0--------------2----------|--4--------------2----------|

A|-----------------0----------|--2--------------0----------|

E|--3-------------------------|----------------------------|


e|-----------5-----------5----|-----------------5--5-------|----|----|

B|--3--3--3-----3--3--3-------|--3--3--3--3--3-------------|----|----|

G|----------------------------|-----------------------6----|----|----|

D|--0--------------2----------|--4--------------2----------|----|----|

A|-----------------0----------|--2--------------0----------|----|----|

E|--3-------------------------|----------------------------|----|----|