I Dont Care tab

 by Ed Sheeran

[Intro]


e|---------------------------------------------------------------------------|

B|-----1--1-------1--1--------1--1--------1--1-------------------------------|

G|-----0--0-------0--0--------0--0--------0--0-------------------------------|

D|---------------------------------------------------------------------------|

A|---3----------3-----------3-----------3------------------------------------|

E|---------------------------------------------------------------------------|



[Verse 1]

I'm at a party I don't wanna be at

e|---------------------------------------------------------------------------|

B|-----1--1-------1--1--------1--1-------------------------------------------|

G|-----0--0-------0--0--------0--0-------------------------------------------|

D|---------------------------------------------------------------------------|

A|---3----------3-----------3------------------------------------------------|

E|---------------------------------------------------------------------------|


And I don't ever wear a suit and tie

e|---------------------------------------------------------------------------|

B|-----1-------1-------------------------------------------------------------|

G|-----0-------0-------------------------------------------------------------|

D|---------------------------------------------------------------------------|

A|---3-------2---------------------------------------------------------------|

E|---------------------------------------------------------------------------|


Wonderin' if I could sneak out the back

e|---------------------------------------------------------------------------|

B|-----1--1-------1--1--------1--1-------------------------------------------|

G|-----0--0-------0--0--------0--0-------------------------------------------|

D|---------------------------------------------------------------------------|

A|---0----------0-----------0------------------------------------------------|

E|---------------------------------------------------------------------------|


Nobody's even lookin' me in my eyes

e|---------------------------------------------------------------------------|

B|-----1-------1-------------------------------------------------------------|

G|-----0-------0-------------------------------------------------------------|

D|---------------------------------------------------------------------------|

A|---0-----------------------------------------------------------------------|

E|-----------3---------------------------------------------------------------|


Then you take my hand. Finish my drink, say, "Shall we dance?" Hell, yeah

e|---------------------------------------------------------------------------|

B|-----1--1-------1--1--------1--1--------1--1-------------------------------|

G|-----0--0-------0--0--------0--0--------0--0-------------------------------|

D|---------------------------------------------------------------------------|

A|---------------------------------------------------------------------------|

E|---1----------1-----------3-----------3------------------------------------|


You know I love you, did I ever tell you? You make it better like that

e|---------------------------------------------------------------------------|

B|-----1--1-------1--1--------1--1--------1--1-------------------------------|

G|-----0--0-------0--0--------0--0--------0--0-------------------------------|

D|---------------------------------------------------------------------------|

A|---3----------3-----------3-----------3------------------------------------|

E|---------------------------------------------------------------------------|



[Pre-chorus]

Don't think I fit in at this party

e|---------------------------------------------------------------------------|

B|-----1--1-------1--1--------1--1-------------------------------------------|

G|-----0--0-------0--0--------0--0-------------------------------------------|

D|---------------------------------------------------------------------------|

A|---3----------3-----------3------------------------------------------------|

E|---------------------------------------------------------------------------|


e|---------------------------------------------------------------------------|

B|-----1-------1-------------------------------------------------------------|

G|-----0-------0-------------------------------------------------------------|

D|---------------------------------------------------------------------------|

A|---3-------2---------------------------------------------------------------|

E|---------------------------------------------------------------------------|


Everyone's got so much to say, yeah

e|---------------------------------------------------------------------------|

B|-----1--1-------1--1--------1--1-------------------------------------------|

G|-----0--0-------0--0--------0--0-------------------------------------------|

D|---------------------------------------------------------------------------|

A|---0----------0-----------0------------------------------------------------|

E|---------------------------------------------------------------------------|


e|---------------------------------------------------------------------------|

B|-----1-------1-------------------------------------------------------------|

G|-----0-------0-------------------------------------------------------------|

D|---------------------------------------------------------------------------|

A|---0-----------------------------------------------------------------------|

E|-----------3---------------------------------------------------------------|


I always feel like I'm nobody, mm

e|---------------------------------------------------------------------------|

B|-----1--1-------1--1--------1--1--------1--1-------------------------------|

G|-----0--0-------0--0--------0--0--------0--0-------------------------------|

D|---------------------------------------------------------------------------|

A|---------------------------------------------------------------------------|

E|---1----------1-----------3-----------3------------------------------------|


Who wants to fit in anyway?

e|---------------------------------------------------------------------------|

B|-----1--1-------1--1--------1--1-------------------------------------------|

G|-----0--0-------0--0--------0--0-------------------------------------------|

D|---------------------------------------------------------------------------|

A|---3----------3-----------3-----------3------------------------------------|

E|---------------------------------------------------------------------------|



[Chorus]

'Cause I don't care when I'm with my baby, yeah

e|---------------------------------------------------------------------------|

B|-----1--1-------1--1--------1--1-------------------------------------------|

G|-----0--0-------0--0--------0--0-------------------------------------------|

D|---------------------------------------------------------------------------|

A|---3----------3-----------3------------------------------------------------|

E|---------------------------------------------------------------------------|


All the bad things disappear

e|---------------------------------------------------------------------------|

B|-----1-------1-------------------------------------------------------------|

G|-----0-------0-------------------------------------------------------------|

D|---------------------------------------------------------------------------|

A|---3-------2---------------------------------------------------------------|

E|---------------------------------------------------------------------------|


And you're making me feel like maybe I am

e|---------------------------------------------------------------------------|

B|-----1--1-------1--1--------1--1-------------------------------------------|

G|-----0--0-------0--0--------0--0-------------------------------------------|

D|---------------------------------------------------------------------------|

A|---0----------0-----------0------------------------------------------------|

E|---------------------------------------------------------------------------|


somebody

e|---------------------------------------------------------------------------|

B|-----1-------1-------------------------------------------------------------|

G|-----0-------0-------------------------------------------------------------|

D|---------------------------------------------------------------------------|

A|---0-----------------------------------------------------------------------|

E|-----------3---------------------------------------------------------------|


I can deal with the bad nights. When I'm with my baby, yeah

e|---------------------------------------------------------------------------|

B|-----1--1-------1--1--------1--1--------1--1-------------------------------|

G|-----0--0-------0--0--------0--0--------0--0-------------------------------|

D|---------------------------------------------------------------------------|

A|---------------------------------------------------------------------------|

E|---1----------1-----------3-----------3------------------------------------|


Ooh, ooh, ooh, ooh, ooh, ooh

e|---------------------------------------------------------------------------|

B|-----1--1-------1--1--------1--1--------1--1-------------------------------|

G|-----0--0-------0--0--------0--0--------0--0-------------------------------|

D|---------------------------------------------------------------------------|

A|---3----------3-----------3-----------3------------------------------------|

E|---------------------------------------------------------------------------|


'Cause I don't care, as long as you just hold me near

e|---------------------------------------------------------------------------|

B|-----1--1-------1--1--------1--1-------------------------------------------|

G|-----0--0-------0--0--------0--0-------------------------------------------|

D|---------------------------------------------------------------------------|

A|---3----------3-----------3------------------------------------------------|

E|---------------------------------------------------------------------------|


You can take me anywhere

e|---------------------------------------------------------------------------|

B|-----1-------1-------------------------------------------------------------|

G|-----0-------0-------------------------------------------------------------|

D|---------------------------------------------------------------------------|

A|---3-------2---------------------------------------------------------------|

E|---------------------------------------------------------------------------|


And you're making me feel like I'm loved by

e|---------------------------------------------------------------------------|

B|-----1--1-------1--1--------1--1-------------------------------------------|

G|-----0--0-------0--0--------0--0-------------------------------------------|

D|---------------------------------------------------------------------------|

A|---0----------0-----------0------------------------------------------------|

E|---------------------------------------------------------------------------|


somebody

e|---------------------------------------------------------------------------|

B|-----1-------1-------------------------------------------------------------|

G|-----0-------0-------------------------------------------------------------|

D|---------------------------------------------------------------------------|

A|---0-----------------------------------------------------------------------|

E|-----------3---------------------------------------------------------------|


I can deal with the bad nights. When I'm with my baby, yeah

e|---------------------------------------------------------------------------|

B|-----1--1-------1--1--------1--1--------1--1-------------------------------|

G|-----0--0-------0--0--------0--0--------0--0-------------------------------|

D|---------------------------------------------------------------------------|

A|---------------------------------------------------------------------------|

E|---1----------1-----------3-----------3------------------------------------|


Ooh, ooh, ooh, ooh, ooh, ooh

e|---------------------------------------------------------------------------|

B|-----1--1-------1--1--------1--1--------1--1-------------------------------|

G|-----0--0-------0--0--------0--0--------0--0-------------------------------|

D|---------------------------------------------------------------------------|

A|---3----------3-----------3-----------3------------------------------------|

E|---------------------------------------------------------------------------|



[Verse 2] (same as the verse 1)

We at a party we don't wanna be at

Tryna talk, but we can't hear ourselves

Read your lips, I'd rather kiss 'em right back

With all these people all around

I'm crippled with anxiety

But I'm told it's where I'm supposed to be

You know what? It's kinda crazy 'cause I really don't mind

And you make it better like that



[Pre-chorus]



[Chorus]



[Bridge]

I don't like nobody but you

e|---------------------------------------------------------------------------|

B|-----------1--x----------------1--x----------------1--x--------------------|

G|-----------0--x----------------0--x----------------0--x--------------------|

D|---------------------------------------------------------------------------|

A|---3-------------------3--------------------3------------------------------|

E|---------------------------------------------------------------------------|


It's like you're the only one here

e|---------------------------------------------------------------------------|

B|-----1--x-------1--x--------1--x-------------------------------------------|

G|-----0--x-------0--x--------0--x-------------------------------------------|

D|---------------------------------------------------------------------------|

A|---3----------3-----------3------------------------------------------------|

E|---------------------------------------------------------------------------|


I don't like nobody but you

e|---------------------------------------------------------------------------|

B|-----------1--x----------------1--x----------------1--x--------------------|

G|-----------0--x----------------0--x----------------0--x--------------------|

D|---------------------------------------------------------------------------|

A|---3-------------------3--------------------3------------------------------|

E|---------------------------------------------------------------------------|


Baby, I don't care

e|---------------------------------------------------------------------------|

B|-----------1--x----------------1--x----------------1--x--------------------|

G|-----------0--x----------------0--x----------------0--x--------------------|

D|---------------------------------------------------------------------------|

A|---3-------------------3--------------------3------------------------------|

E|---------------------------------------------------------------------------|


I don't like nobody but you

e|---------------------------------------------------------------------------|

B|-----------1--x----------------1--x----------------1--x--------------------|

G|-----------0--x----------------0--x----------------0--x--------------------|

D|---------------------------------------------------------------------------|

A|---3-------------------3--------------------3------------------------------|

E|---------------------------------------------------------------------------|


I hate everyone here

e|---------------------------------------------------------------------------|

B|-----------1--x----------------1--x----------------1--x--------------------|

G|-----------0--x----------------0--x----------------0--x--------------------|

D|---------------------------------------------------------------------------|

A|---3-------------------3--------------------3------------------------------|

E|---------------------------------------------------------------------------|


I don't like nobody but you

e|---------------------------------------------------------------------------|

B|-----------1--x----------------1--x----------------1--x--------------------|

G|-----------0--x----------------0--x----------------0--x--------------------|

D|---------------------------------------------------------------------------|

A|---3-------------------3--------------------3------------------------------|

E|---------------------------------------------------------------------------|


Baby, yeah

e|---------------------------------------------------------------------------|

B|-----------1--x----------------1--x----------------------------------------|

G|-----------0--x----------------0--x----------------------------------------|

D|---------------------------------------------------------------------------|

A|---3-------------------3--------------------3------------------------------|

E|---------------------------------------------------------------------------|



[Chorus]




************************************


| x   Dead note


************************************