Airplanes bass tab

 by B.o.B

Airplanes


In Here is everything youll need to play this song.


Theres two versions of this song, this is the tab for the version WITHOUT Eminem. I have

his version so it will be on here aswell under Eminems bass tabs


Truth be told its a knightmare as the bass is always in and out. Iv put a link to a vid

i made with me playing along to it at the bottom

of this page so you can see more clearly how the tab lines up against the song


Intro


Part A

G|-------------------------------------------|

D|-------------------------------------------|

A|-9-9-9-9-9-9-9-7-5-5-5-12-12-12-12-12------|

E|-------------------------------------------|



Part B on the last note this time you drop to the 5 and slide back in to the 9

G|-----------------------------------------|

D|-----------------------------------------|

A|-9-9-9-9-9-9-9-9-7-5-5-5-12-12-12-12-5---|

E|-----------------------------------------|


Order for the intro is     Part A X1

                           Part B X1

                           Part A x2


Verse


Come in with this....


G|----------------------|

D|----------------------|

A|-11h12--11h12--11h12--|

E|----------------------|



G|--------------------------------------------------------|

D|--------------------------------------------------------|

A|-9--7/9-7-5-----9-------9----5-7---9-----5/12-12-12-12--|

E|------------5--------------5----------------------------|


Chorus



G|----------------------------------|-------|

D|----------------------------------|-------|

A|-9-9-9-9-9-9-9-9-5-5-5-5----------|-5/9~--|

E|-------------------------5-5-5-5--|-------|

                                      ^ on the last one slide up

                                        and let the '9' ring


Verse 2


Come in with this....


G|----------------------|

D|----------------------|

A|-11h12--11h12--11h12--|

E|----------------------|


G|--------------------------------------------------------|

D|--------------------------------------------------------|

A|-9--7/9-7-5---5-7----9--7/9-7-5--5/12-12-12-12\-9----9--|

E|------------5-------------------------------------------|



Play Chorus


Play Intro


End