Roar tab

 by Katy Perry

Intro:

e|--7-7-7-7-7-7-7-7-7-7-7-7-7-7---------|

B|--8-8-8-8-8-8-8-8-8-8-8-8-8-8---------|

G|--7-7-7-7-7-7-7-7-7-7-7-7-7-7---------|

D|--------------------------------------|

A|--------------------------------------|

E|--------------------------------------|

Verse:

e|--------------------------------------------------------------------|

B|----3-3-3-0-0---------3-3-3-0-0-------------0-3-0----------0-3-0----|

G|--------------2-0---------------2-0---0-0-0---------00-0-0----------|

D|--------------------------------------------------------------------|

A|--------------------------------0---------------------------------3-|

E|--3-------3-3-------3-------3-3-----0-------0-----0--------0--------|


e|--------------------------------------------------------------------|

B|----3-3-3-0-0---------3-3-3-0-0-------------0-3-0----------0-3-0----|

G|--------------2-0---------------2-0---0-0-0---------00-0-0----------|

D|--------------------------------------------------------------------|

A|--------------------------------0---------------------------------3-|

E|--3-------3-3-------3-------3-3-----0-------0-----0--------0--------|

Refrain:

e|----0-----0------0---------0------0-----0-----0---------------------|

B|--3---3-3---3------3-000-3---3--3---3-3---3-----3-000---------------|

G|------------------------------------------------------2-0-0---------|

D|--------------------------------------------------------------------|

A|-----------------------------0----------------------------3---------|

E|--3-----3---3--3----------------0-----0-----0-----------------------|


e|----0-----0------0---------0------0-----0-------------|

B|--3---3-3---3------3-000-3---3--3---3-3---3-----------|

G|------------------------------------------------------|

D|------------------------------------------------------|

A|-----------------------------0------------------------|

E|--3-----3---3--3----------------0-----0-----0---------|

CHORUS:

e|-----------0-3-3--0---3-0--3-3--0---3-0--3--0---3-0--3-5-7-5-0---|

B|--3-3-3-3-----------3-------------3-----------3----------------3-|

G|-----------------------------------------------------------------|

D|-----------------------------------------------------------------|

A|-------------3--------------------------0------------------------|

E|-----------------3----3--------3----3------0----0----0-----------|


e|--3--0---3-0--3-3--0---3-0--3--0---3-0--3-5-7-5-0----|

B|-------3-------------3-----------3----------------3--|

G|-----------------------------------------------------|

D|-----------------------------------------------------|

A|---------------------------0-------------------------|

E|----3----3--------3----3------0----0----0------------|

Oh oh oh oh oh

e|------3-3-3-3-3-0-------3-3-3-3-3-0-------3-3-3-3-3-0----3-5-7-5-0----|

B|----3-------------3---3-------------3---3-------------3------------3--|

G|----------------------------------------------------------------------|

D|----------------------------------------------------------------------|

A|--------------------------------0-------------------------------------|

E|--3-------3---------3-------3---------0-------0----------0------------|

Repeat: Intro-1stVerse-Refrain-Chorus

Roaar roaar roaar


e|---0----0----0-2--0-2--3-5---------------|

B|-----3----3------------------------------|

G|-----------------------------------------|

D|--0-----0----0----0----0-----------------|

A|-----------------------------------------|

E|-----------------------------------------|

Repeat: Chorus