DespacitoLuis

Fonsi - Despacito

[Intro]

   (n.r)

e|----7---10p9p7\6--7--|----7--9--10--12--|--14------14------14--|-------10-----9-----7--|

B|---7-----------------|---7--------------|------15------15------|-----------------------|

G|--7------------------|--7---------------|----------------------|--/11------9-----7-----|

D|---------------------|------------------|----------------------|-----------------------|

A|---------------------|------------------|----------------------|-----------------------|

E|---------------------|------------------|----------------------|-----------------------|


[Verse 1]

   Coming over in my direction...

e|---------------|-------------------------|---------------|-----------------------|

B|---------------|-------0--0h1p0----------|---------------|-------0--1p0----------|

G|-----0h2--2-2--|--2-2------------2p0-----|-----0h2--2-2--|--2-2----------2p0--0--|

D|---------------|----------------------3--|--3------------|-----------------------|

A|--0------------|-------------------------|---------------|--------------------3--|

E|---------------|----------------------1--|---------------|-----------------------|


e|--------------------0--------|-------------------|-----------------------|

B|----------1-1-1--3-----3--1--|--1h3p1p0--0-------|-------0--0h3----------|

G|--0-0--0---------------------|--------------2p0--|--0h2----------0--0h2--|

D|-----------------------------|-------------------|-----------------------|

A|-----------------------------|-------------------|-----------------------|

E|-----------------------------|-----------3-------|-----------------------|


e|-------------------------0-----|-------------0-----------0-----|-----------|

B|-----1-----1-1--1-----------3--|--1h3-----3-----1-----------3--|--1--------|

G|--------2----------2-----------|-------0-----------0-----------|-----0-----|

D|----------------------2--------|----------------------2--------|--------2--|

A|--0-------------0--------------|-------------------------------|--3--------|

E|-------------------------------|--1----------------------------|-----------|


e|---------0--------------------3/5--0--|--0h1p0------------0-----|----------|

B|--3-3-3-----3p1------------1----------|---------3p1--1h3-----3--|--1p0-----|

G|-----------------2p0--0h2-------------|-------------------------|-------2--|

D|--------------------------------------|-------------------------|-------2--|

A|--------------------------------------|-------------------------|-------0--|

E|--------------------------------------|-------------------------|----------|

      Am                              F

e|-----------------------0-------|--------------------------0-------|

B|-----------1-1-1-1--3-----3p1--|--------------1-1-1-1--3-----3p1--|

G|--2-2-2-2--2-2-2-2-------------|-----2-2-2-2--2-2-2-2-------------|

D|--2-2-2-2----------------------|-----3-3-3-3----------------------|

A|-------------------------------|----------------------------------|

E|-------------------------------|--1-------------------------------|

Baby, take it slow so we can last long

e|---------------------|-----0----------0-------|-----------------|-----0----------0-------|

B|------------1-1-1-1--|--3-----3p1--3-----3p1--|--3-----3-3-3-3--|--3-----3p1--3-----3p1--|

G|--0--0-0-0-----------|------------------------|-----0-----------|------------------------|

D|---------------------|------------------------|-----------------|------------------------|

A|--3------------------|------------------------|-----------------|------------------------|

E|---------------------|------------------------|--3--------------|------------------------|


[Verse 2]

   (Part 1)

     Am

e|--------------------------------------------|

B|------1------------0--1p0--(1p0)--1p(0)-----|

G|-----(2)-----2---------------------------2--|

D|------2-------------------------------------|

A|--0-------0-----x-----------x--------x------|

E|------x---------x-----------x--------x------|

   F

e|---------------------------------------------|

B|-----(1)-----------0--1p0--(1p0)--1--(3)-----|

G|------2------2----------------------------0--|

D|---------------------------------------------|

A|------x---------x-----------x---------x------|

E|--1---x---1-----x-----------x---------x------|

   C

e|-------------------------------------------------|

B|-----(1)--------------1-1--(1)--1--1--(3)--3--0--|

G|------0------0-----0-----------------------------|

D|-------------------------------------------------|

A|--3---x---3-----x-----------x----------x---------|

E|------x---------x-----------x----------x---------|

   G

e|------------------|--------------|

B|--(0)-----(0)-----|--------------|

G|------------------|--0h2--2-2----|

D|------------------|--------------|

A|---x-------x------|--------------|

E|---x---3---x---3--|--------------|

  (Part 2)

e|--------------------------------------------|

B|------1------------0--1p0--(1p0)--1p(0)-----|

G|-----(2)-----2---------------------------2--|

D|------2-------------------------------------|

A|--0-------0-----x-----------x--------x------|

E|------x---------x-----------x--------x------|

   F

e|-------------0-------------------------------|

B|-----(1)-----------0--1p0--(1p0)--1--(3)-----|

G|------2------2----------------------------0--|

D|---------------------------------------------|

A|------x---------x-----------x---------x------|

E|--1---x---1-----x-----------x---------x------|

   C

e|-------------------------------------------------|

B|-----(1)--------------1-1--(1)--1--1--(3)--3--0--|

G|------0------0-----0-----------------------------|

D|-------------------------------------------------|

A|--3---x---3-----x-----------x----------x---------|

E|------x---------x-----------x----------x---------|

   G

e|-----------------------|

B|--(0)-----(0)--0h1--0--|

G|-----------------------|

D|-----------------------|

A|---x-------x-----------|

E|---x---3---x-----------|


[Chorus]

     Am

e|--------------------|---------------------|

B|---------1----------|--------------1------|

G|--2------2----------|--2--2-2-2---(2)--0--|

D|-----2--(2)--2-2-2--|---------------------|

A|--0------x----------|--0-----------x------|

E|---------x----------|--------------x------|

    F

e|-----------------------|-------------------|

B|-----------------------|----------------0--|

G|--2--------------------|--2-2-2-2--(2)-----|

D|-----3-----(3)--3-3-3--|-------------------|

A|--------3---x----------|------------x------|

E|--1---------x----------|------------x------|

   C

e|-----------------------|-------------------|

B|--1--------------------|--1-1-1-1--(1)--3--|

G|-----0-----(0)--0-0-0--|-------------------|

D|--------2--------------|-------------------|

A|--3---------x----------|------------x------|

E|------------x----------|------------x------|

   G

e|----------------------|------------|

B|--3--0-----(0)--0-----|--0h1--0----|

G|--------0----------0--|------------|

D|----------------------|------------|

A|------------x---------|------------|

E|--3---------x---------|------------|

     Am

e|--------------------|---------------------|

B|---------1----------|--------------1------|

G|--2------2----------|--2--2-2-2---(2)--0--|

D|-----2--(2)--2-2-2--|---------------------|

A|--0------x----------|--0-----------x------|

E|---------x----------|--------------x------|

    F

e|-----------------------|-------------------|

B|-----------------------|----------------0--|

G|--2--------------------|--2-2-2-2--(2)-----|

D|-----3-----(3)--3-3-3--|-------------------|

A|--------3---x----------|------------x------|

E|--1---------x----------|------------x------|

   C

e|-----------------------|-------------------|

B|--1--------------------|--1-1-1-1--(1)--3--|

G|-----0-----(0)--0-0-0--|-------------------|

D|--------2--------------|-------------------|

A|--3---------x----------|------------x------|

E|------------x----------|------------x------|

   G

e|----------------------|------------|

B|--3--0-----(0)--0-----|--1--3------|

G|--------0----------0--|------------|

D|----------------------|------------|

A|------------x---------|------------|

E|--3---------x---------|------------|


[Post-Chorus]

(part one)

     Am

e|--0-----0-------------0-----0----------|

B|-----3-----3--(3)--3-----3-----3--(3)--|

G|---------------------------------------|

D|---------------------------------------|

A|--0------------x-------------------x---|

E|---------------x-------------------x---|

    F

e|--1-1----------1---------|--1-1-1-1--1--3--1--0--|

B|-------1------(1)--1-----|----------(1)----------|

G|---------2-----2------2--|-----------------------|

D|-----------3-------------|-----------------------|

A|---------------x---------|-----------x-----------|

E|---------------x---------|-----------x-----------|

  C

e|------0---------|--0-0-0-0--(3)--1--0-----|

B|-----(1)--1-----|----------------------3--|

G|--0---0------0--|-------------------------|

D|----------------|-------------------------|

A|------x---------|------------x------------|

E|------x---------|------------x------------|

   G

e|----------------|-------------------|

B|-----(3)--3-----|--3-3-3-3--3p1--1--|

G|--0----------0--|-------------------|

D|----------------|-------------------|

A|------x---------|-------------------|

E|------x---------|-------------------|


(part 2)

     Am

e|--0-----0-------------0-----0----------|

B|-----3-----3--(3)--3-----3-----3--(3)--|

G|---------------------------------------|

D|---------------------------------------|

A|--0------------x-------------------x---|

E|---------------x-------------------x---|

    F

e|--1-1----------1---------|--1-1-1-1--1--3--1--0--|

B|-------1------(1)--1-----|----------(1)----------|

G|---------2-----2------2--|-----------------------|

D|-----------3-------------|-----------------------|

A|---------------x---------|-----------x-----------|

E|---------------x---------|-----------x-----------|

  C

e|------0---------|--0-0-0-0--(3)--1--0-----|

B|-----(1)--1-----|----------------------3--|

G|--0---0------0--|-------------------------|

D|----------------|-------------------------|

A|------x---------|------------x------------|

E|------x---------|------------x------------|

   G

e|----------------|

B|-----(3)--3-----|

G|--0----------0--|

D|----------------|

A|------x---------|

E|------x---------|


[Verse 2]

(part 1)

   Am

e|----------------------|---------------------|

B|-----1--1p0-----------|--1p0--1p0-----------|

G|-------------2--2-----|------------2--2-----|

D|--2----------------2--|------------------2--|

A|-------------0--------|------------0--------|

E|----------------------|---------------------|

  F

e|-------------------|---------------------|

B|--1--1p0-----------|--1p0--1p0-----------|

G|----------2--2-----|------------2--2-----|

D|----------------3--|------------------3--|

A|-------------------|---------------------|

E|----------1--------|------------1--------|

  C

e|-----------------------|-----------------------|

B|--3-3--3p1--1h3--1-----|--3-3--3p1--1h3--1-----|

G|--------------------0--|--------------------0--|

D|-----------------------|-----------------------|

A|------------3----------|------------3----------|

E|-----------------------|-----------------------|

  G

e|-------------------|----------------|

B|--1-1-1-1--0--0-0--|--0-----0h1--0--|

G|-------------------|-----2----------|

D|-------------------|----------------|

A|-------------------|----------------|

E|-----------3-------|----------------|


(part 2)

   Am

e|----------------------|-----------------------|

B|-----1--1p0-----------|--(1p0)--1p0-----------|

G|-------------2--2-----|--------------2--2-----|

D|--2----------------2--|--------------------2--|

A|-------------0--------|----x---------0--------|

E|----------------------|----x------------------|

               F

e|----------------------|-----------------------|

B|--(1)--1p0------------|--(1p0)--1p0-----------|

G|-------------2--2-----|--------------2--2-----|

D|-------------------3--|--------------------3--|

A|---x------------------|---x-------------------|

E|---x---------1--------|---x----------1--------|

   C

e|--------------------------|--------------------------|

B|--(3)--3--3p1--1h3--1-----|--(3)--3--3p1--1h3--1-----|

G|----------------------0---|----------------------0---|

D|--------------------------|--------------------------|

A|---x-------------------3--|---x-------------------3--|

E|---x----------------------|---x----------------------|

    G

e|----------------------|----------------|----------|

B|--(1)--1-1-1--0--0-0--|--0-----0h1--0--|----------|

G|----------------------|-----2----------|--2--2----|

D|----------------------|----------------|----------|

A|---x------------------|----------------|----------|

E|---x---------3--------|----------------|----------|


[Chorus]

(part 1)

     Am

e|--------------------|---------------------|

B|---------1----------|--------------1------|

G|--2------2----------|--2--2-2-2---(2)--0--|

D|-----2--(2)--2-2-2--|---------------------|

A|--0------x----------|--0-----------x------|

E|---------x----------|--------------x------|

    F

e|-----------------------|-------------------|

B|-----------------------|----------------0--|

G|--2--------------------|--2-2-2-2--(2)-----|

D|-----3-----(3)--3-3-3--|-------------------|

A|--------3---x----------|------------x------|

E|--1---------x----------|------------x------|

   C

e|-----------------------|-------------------|

B|--1--------------------|--1-1-1-1--(1)--3--|

G|-----0-----(0)--0-0-0--|-------------------|

D|--------2--------------|-------------------|

A|--3---------x----------|------------x------|

E|------------x----------|------------x------|

   G

e|----------------------|------------|

B|--3--0-----(0)--0-----|--0h1--0----|

G|--------0----------0--|------------|

D|----------------------|------------|

A|------------x---------|------------|

E|--3---------x---------|------------|


(part 2)

     Am

e|--------------------|---------------------|

B|---------1----------|--------------1------|

G|--2------2----------|--2--2-2-2---(2)--0--|

D|-----2--(2)--2-2-2--|---------------------|

A|--0------x----------|--0-----------x------|

E|---------x----------|--------------x------|

    F

e|-----------------------|-------------------|

B|-----------------------|----------------0--|

G|--2--------------------|--2-2-2-2--(2)-----|

D|-----3-----(3)--3-3-3--|-------------------|

A|--------3---x----------|------------x------|

E|--1---------x----------|------------x------|

   C

e|-----------------------|-------------------|

B|--1--------------------|--1-1-1-1--(1)--3--|

G|-----0-----(0)--0-0-0--|-------------------|

D|--------2--------------|-------------------|

A|--3---------x----------|------------x------|

E|------------x----------|------------x------|

   G

e|----------------------|------------|

B|--3--0-----(0)--0-----|--1--3------|

G|--------0----------0--|------------|

D|----------------------|------------|

A|------------x---------|------------|

E|--3---------x---------|------------|


[Post-Chorus]

(part 1)

     Am

e|--0-----0-------------0-----0----------|

B|-----3-----3--(3)--3-----3-----3--(3)--|

G|---------------------------------------|

D|---------------------------------------|

A|--0------------x-------------------x---|

E|---------------x-------------------x---|

    F

e|--1-1----------1---------|--1-1-1-1--1--3--1--0--|

B|-------1------(1)--1-----|----------(1)----------|

G|---------2-----2------2--|-----------------------|

D|-----------3-------------|-----------------------|

A|---------------x---------|-----------x-----------|

E|---------------x---------|-----------x-----------|

  C

e|------0---------|--0-0-0-0--(3)--1--0-----|

B|-----(1)--1-----|----------------------3--|

G|--0---0------0--|-------------------------|

D|----------------|-------------------------|

A|------x---------|------------x------------|

E|------x---------|------------x------------|

   G

e|----------------|-------------------|

B|-----(3)--3-----|--3-3-3-3--3p1--1--|

G|--0----------0--|-------------------|

D|----------------|-------------------|

A|------x---------|-------------------|

E|------x---------|-------------------|


(part 2)

     Am

e|--0-----0-------------0-----0----------|

B|-----3-----3--(3)--3-----3-----3--(3)--|

G|---------------------------------------|

D|---------------------------------------|

A|--0------------x-------------------x---|

E|---------------x-------------------x---|

    F

e|--1-1----------1---------|--1-1-1-1--1--3--1--0--|

B|-------1------(1)--1-----|----------(1)----------|

G|---------2-----2------2--|-----------------------|

D|-----------3-------------|-----------------------|

A|---------------x---------|-----------x-----------|

E|---------------x---------|-----------x-----------|

  C

e|------0---------|--0-0-0-0--(3)--1--0-----|

B|-----(1)--1-----|----------------------3--|

G|--0---0------0--|-------------------------|

D|----------------|-------------------------|

A|------x---------|------------x------------|

E|------x---------|------------x------------|

   G

e|----------------|

B|-----(3)--3-----|

G|--0----------0--|

D|----------------|

A|------x---------|

E|------x---------|


[Verse 2/Outro]

   Am

e|----------------------|-----------------------|

B|-----1--1p0-----------|--(1p0)--1p0-----------|

G|-------------2--2-----|--------------2--2-----|

D|--2----------------2--|--------------------2--|

A|-------------0--------|----x---------0--------|

E|----------------------|----x------------------|

               F

e|----------------------|-----------------------|

B|--(1)--1p0------------|--(1p0)--1p0-----------|

G|-------------2--2-----|--------------2--2-----|

D|-------------------3--|--------------------3--|

A|---x------------------|---x-------------------|

E|---x---------1--------|---x----------1--------|

   C

e|--------------------------|--------------------------|

B|--(3)--3--3p1--1h3--1-----|--(3)--3--3p1--1h3--1-----|

G|----------------------0---|----------------------0---|

D|--------------------------|--------------------------|

A|---x-------------------3--|---x-------------------3--|

E|---x----------------------|---x----------------------|

    G

e|----------------------|----------------|----------|

B|--(1)--1-1-1--0--0-0--|--0-----0h1--0--|----------|

G|----------------------|-----2----------|--2--2----|

D|----------------------|----------------|----------|

A|---x------------------|----------------|----------|

E|---x---------3--------|----------------|----------|



*****************************************


| x Dead note/slap

| ( ) strum with middle finger

| h hammer on

| p pull off

| /   Slide up

| \   Slide down


*****************************************