FadedAlan Walker - Faded

Intro   (0:00 - 0:11)

Verse 1 (0:11 - 0:55)

Chorus  (0:55 - 1:37)

Verse 2 (1:37 - 2:32)

Chorus  (2:32 - 3:15)

Outro   (3:15 - 3:32)



[Intro]

(0:00 - 0:11)


Guitar 1 (Clean)


e|---------------------------------------------------|

B|---------------------------------------------------|

G|-11-11-11-15-20-20-20-18-15-15-15-15-10-10-10-8-11~|

D|---------------------------------------------------|

A|---------------------------------------------------|

E|---------------------------------------------------|


Guitar 2 (Clean)


e|--------------------------------------------------------------------------|

B|--------------------------------------------------------------------------|

G|--------------------------------------------------------------------------|

D|---8---8---8---8-------------------11-8-11---11-8-11----------------------|

A|-6---9---6---9-----9-6-9---9-6-9-9---------9-----------11-8-11---11-8---9~|

E|-----------------6-------6---------------------------9---------9----------|



[Verse 1]

(0:11 - 0:55)


Guitar 1 (Clean)

e|--------------------------------------------------------------------|

B|-----------------9-9h11~------------11~\----------------------------|

G|-11-11\8-11-8-11-----------11-11----------11-11-11\10~---10-10\8/11~|

D|---------------------------------11---------------------------------|

A|--------------------------------------------------------------------|

E|--------------------------------------------------------------------|

   You were the shadow...


e|----------------------------------------------|

B|-----------------9-11-------14\11~------------|

G|-11-11\8-11-8-11------11-11----------11-11/13~|

D|----------------------------------------------|

A|----------------------------------------------|

E|----------------------------------------------|

   Afraid our aim is...


Guitar 2 (Clean)

e|---------------------------------------------|

B|---------------------------------------------|

G|---------------------------------------------|

D|-8-8-8-8---------11-11-11-11-------------(2x)|

A|-6-6-6-6-9-9-9-9-9--9--9--9--11-11-11-11-----|

E|---------7-7-7-7-------------9--9--9--9------|

   . . . . . . . . . . . . . . .  .  .  .



Guitar 1 (Distortion)

e|---------------------------------------------------------------------------------------------------|

B|-11-11-11-11~-(3x)------------------------------11-11-11-11~---------------------------11-11-11-11~|

G|-------------------11-13-13---13^15r13-11-11~------------------11-11-13-10-10-10h11~---------------|

D|---------------------------------------------------------------------------------------------------|

A|---------------------------------------------------------------------------------------------------|

E|---------------------------------------------------------------------------------------------------|

  Where are you now? Was it all in my fantasy?


Guitar 2 (Distortion)

e|----------------------------------------------------------------------------------------|

B|----------------------------------------------------------------------------------------|

G|-11---11---11---/15---/20---20---20---18---\15---15---15---15---\10---10---10---10-(2x)-|

D|----------------------------------------------------------------------------------------|

A|----------------------------------------------------------------------------------------|

E|----------------------------------------------------------------------------------------|

   .    .    .     .     .    .    .    .     .    .    .    .     .    .    .    .



[Chorus]

(0:55 - 1:37)


Guitar 1

e|--------------------------------------------------------|

B|---------------14-14-11~------14-14-11~-----11-11-11-11~|

G|-11-8-------11-------------11----------13~--------------|

D|------11~-----------------------------------------------|

A|--------------------------------------------------------|

E|--------------------------------------------------------|

   Atlantis.. Under the sea...


e|-----------------------------------------------------------|

B|---------12~---14-11-14-11-14-11-14-11\9-12~-----12\11-11~\|

G|-11-11-8---------------------------------------8-----------|

D|-----------------------------------------------------------|

A|-----------------------------------------------------------|

E|-----------------------------------------------------------|

   Another dream...


e|----------------------------------------------------------------------------|

B|---12\11-11~\--------------12\11-11~\-----12-12/14~---------------12\11-11~\|

G|-8--------------11-10~---8--------------8-------------11-10~----8-----------|

D|----------------------------------------------------------------------------|

A|----------------------------------------------------------------------------|

E|----------------------------------------------------------------------------|

   I'm faded...


Guitar 2

e|-----------------------------------------------------|

B|-----------------------------------------------------|

G|-11-------15------20-------18------15-------10-------|

D|-x--(12x)-x--(4x)-x--(12x)-x--(4x)-x--(16x)-x--(16x)-|

A|-9--------13------18-------16------13-------8--------|

E|-----------------------------------------------------|


e|----------------------------------------------------------------------------------------------------|

B|---------------19-19-18-18-16-----14----------------------------------------------------------------|

G|-11-----15-----x--x--x--x--x-(6x)-x-(6x)-13-----15------18-18-16-16-15\13-13\10-10-----13-----10----|

D|-x-(8x)-x-(4x)-16-16-15-15-13-----11-----x-(4x)-x-(12x)-x--x--x--x--x--x--x--x--x-(8x)-x-(4x)-x-(4x)|

A|-9------13-------------------------------11-----13------16-16-14-14-13\11-11\8--8------11-----8-----|

E|----------------------------------------------------------------------------------------------------|


e|----------------------------------------------------------------------------------------------------------|

B|---------------19-19-18-18-16-----14----------------------------------------------------------------------|

G|-11-----15-----x--x--x--x--x-(6x)-x-(6x)-13-----15------18-18-16-16-15\13-13\10-10-----11-----13-13-11-11-|

D|-x-(8x)-x-(4x)-16-16-15-15-13-----11-----x-(4x)-x-(12x)-x--x--x--x--x--x--x--x--x-(8x)-x-(4x)-x--x--x--x--|

A|-9------13-------------------------------11-----13------16-16-14-14-13\11-11\8--8------9------11-11-9--9--|

E|----------------------------------------------------------------------------------------------------------|



[Verse 2]

(1:37 - 2:32)


Guitar 1

e|-------------------------------------------------------------------|

B|------------------9-11-------------11~-----------------------------|

G|-11-11-11-11\8-11---------11-11----------11-11-11-10~---10-10\8/11~|

D|--------------------------------11---------------------------------|

A|-------------------------------------------------------------------|

E|-------------------------------------------------------------------|

   These shallow waters never met...


e|----------------------------------------------------|

B|------------------9-11------11/14\11-11~------------|

G|-11-11\13-11-8-11--------11----------------11-11/13~|

D|----------------------------------------------------|

A|----------------------------------------------------|

E|----------------------------------------------------|

   Eternal silence of the sea...


e|-------------------------------------------------------------------------------------------------|

B|-11-11-11-11/19-(2x)----14-14-11----14-14-11----14-14------------------14-14-11~------14-14-11\9~|

G|---------------------11----------11----------11-------13-11-11/18---11-------------11------------|

D|-------------------------------------------------------------------------------------------------|

A|-------------------------------------------------------------------------------------------------|

E|-------------------------------------------------------------------------------------------------|

   Where are you now?


e|-----------------------------------|----------------------------------------------------|

B|--------------------14-------------|--------------------14------------------11-11-11-11~|

G|-11-11---13-11---11------10-11-11--|-10-11---13-11---11------10-11-11(3x)---------------|

D|-----------------------------------|----------------------------------------------------|

A|-----------------------------------|----------------------------------------------------|

E|-----------------------------------|----------------------------------------------------|

   (Voice warp section)


Guitar 2

e|-------------------------------------------------------------------------------------------|

B|-------------------------------------------------------------------------------------------|

G|-11---11---11---11---11---11---11--11-11--11-11-(3x)-10---10---10---10---10---10---10---10-|

D|-------------------(Repeat whole section 6 times)------------------------------------------|

A|-------------------------------------------------------------------------------------------|

E|-------------------------------------------------------------------------------------------|

   .    .    .    .    .    .    .   .  .   .  .       .    .    .    .    .    .    .    .



[Chorus]

(2:32 - 3:15)


Guitar 1

e|--------------------------------------------------------|

B|---------------14-14-11~------14-14-11~-----11-11-11-11~|

G|-11-8-------11-------------11----------13~--------------|

D|------11~-----------------------------------------------|

A|--------------------------------------------------------|

E|--------------------------------------------------------|

   Atlantis.. Under the sea...


e|-----------------------------------------------------------|

B|---------12~---14-11-14-11-14-11-14-11-9-12~-----12\11-11~\|

G|-11-11-8---------------------------------------8-----------|

D|-----------------------------------------------------------|

A|-----------------------------------------------------------|

E|-----------------------------------------------------------|

   Another dream...


e|----------------------------------------------------------------------------|

B|---12\11-11~\--------------12\11-11~\-----12-12/14~---------------12\11-11~\|

G|-8--------------11-10~---8--------------8-------------11-10~----8-----------|

D|----------------------------------------------------------------------------|

A|----------------------------------------------------------------------------|

E|----------------------------------------------------------------------------|

   I'm faded...


Guitar 2 (Repeat twice)

e|----------------------------------------------------------------------------------------------------|

B|---------------19-19-18-18-16-----14----------------------------------------------------------------|

G|-11-----15-----x--x--x--x--x-(6x)-x-(6x)-13-----15------18-18-16-16-15\13-13\10-10-----13-----10----|

D|-x-(8x)-x-(4x)-16-16-15-15-13-----11-----x-(4x)-x-(12x)-x--x--x--x--x--x--x--x--x-(8x)-x-(4x)-x-(4x)|

A|-9------13-------------------------------11-----13------16-16-14-14-13\11-11\8--8------11-----8-----|

E|----------------------------------------------------------------------------------------------------|


e|----------------------------------------------------------------------------------------------------------|

B|---------------19-19-18-18-16-----14----------------------------------------------------------------------|

G|-11-----15-----x--x--x--x--x-(6x)-x-(6x)-13-----15------18-18-16-16-15\13-13\10-10-----11-----13-13-11-11-|

D|-x-(8x)-x-(4x)-16-16-15-15-13-----11-----x-(4x)-x-(12x)-x--x--x--x--x--x--x--x--x-(8x)-x-(4x)-x--x--x--x--|

A|-9------13-------------------------------11-----13------16-16-14-14-13\11-11\8--8------9------11-11-9--9--|

E|----------------------------------------------------------------------------------------------------------|



[Outro]

(3:15 - 3:32)


Guitar 1 (Clean)

e|----------------------------------------|

B|----------------------------------------|

G|-11-11-11-15-20-20-20-18-15-15-15-15-10~|

D|----------------------------------------|

A|----------------------------------------|

E|----------------------------------------|


Guitar 2 (Clean)

e|--------------------------------------------------------|

B|--------------------------------------------------------|

G|--------------------------------------------------------|

D|---8---8---8---8-------------------11-8-11---11-8-11----|

A|-6---9---6---9-----9-6-9---9-6-9-9---------9----------8~|

E|-----------------6-------6------------------------------|



************************************


| x  Dead note

| h  Hammer-on

| r  Release

| /  Slide up

| \  Slide down

| ~  Vibrato

| x  Mute note

| ^  Bend


************************************