Señorita tab

 by Shawn Mendes, Camila Cabello

x= slap (thumb)

p=slap (on fret with left hand)

b=wrist on guitar


[Intro]


e|---------------------------------------------8-------8---------------------------|

B|-13-10-----13-12--10-12-13-12-10-12--8-8------12--8-12-13-12-10------------------|

G|-----------9--------------------------------9-----9------------------------12----|

D|---------------------------------------------------------------------------------|

A|--0----------------0--------12-10-------------------------------12-10------------|

E|-------12--------------------------12-10-8----8-------8--------------12-10-------|


e|-------------------------------------------------7-8-7-8-7--7-8-7--7h8-7-5-7-------|

B|----10/13-13-13-------10/13-13-13---------8----------8-8----8-8--------------------|

G|-10---------------10-10-----------10-9-------7------------0------0-----------------|

D|------------------------------------------10-7-------------------------------------|

A|-8-------------12-----8-------------------------7----------------------------------|

E|-----------------------------------------------------------------------------------|


e|-8---5------8-7--5---7-8-7-5-7-8-----------8------------8------------------|

B|-5------5---------5---------------8---8---------12--8--12-12-10-8----------|

G|-5------5-------------------------9-------9--------------------------------|

D|---------------------------------------------------------------------------|

A|-0-0--7--7-----0-------7---------------------------------------------------|

E|-----x------x-------x--------x----9-9-x-9--9-x----8--x--------x------------|


e|-1-3/8-8-8---1-1-3/8-8-8---7--8-7-8-7----7--8-7-8-7-5--5-----------|

B|-1---------------1------------------------8------------------------|

G|-2---------------2------------------------------0------------------|

D|-------------------------------------------------------------------|

A|---------------------------------7---------------------------------|

E|-1---x----8-x---1--x-----8-x------x-------x------x--------x--------|


[Verse 1]


e|-----------------------------------0-------------0-----------------|

B|---5----5--------5----5------------3-/5-3-------3-/5-/6-5-3-1------|

G|---5-7---7-5----5-7---7-5--5-0----------5--0-----------------------|

D|----------------------------9----------5-------------5-------------|

A|-0------7------0------7--------3-------------3---------------------|

E|------x-------x-----x-------x-------x-------x----x----------x------|


e|----0--12-12----------------------------------------------|

B|-------------------------------2/3-15-15-1-0--------------|

G|-2--------------2----2-0-0-0---------------0----0h2-------|

D|-3--------------3---3-------2--------------------0--------|

A|--------------------3-------------------------------------|

E|-1---x------x-1--x-----x---0---x-----------3-x-3----x-----|


e|---------------------------------------------0--------------------------------|

B|-----------------------------------------------3-/5-3-------5-3-5-6-5-3-1-----|

G|----9-7--9--7-5------9-7--9--7-5-4-5--0----------5--0--5-4-5-7-5-4-2----------|

D|---10-9-10-9-7-----10-9-10-9-7-5-7--2------5-------2--------------------------|

A|-0-------7---------0-------7-------------3--------------3---------------------|

E|-------x---------x-------x----------x---------x--------x----------------------|


e|-----------------------------------------------------------7-7h8-7-5-7--|

B|-------------------------------------------------1-0--------8-----------|

G|-2-/-9-----9--9-----2------2-0-0-0---7--7-7-----2-0----0----------------|

D|-3-/-10--10-10-----3------3------2-/9---9-9-----------------------------|

A|-------------------------3-3--------------------------------------------|

E|-1-/-8--x-8--8--x-1--x-------x---0-----x-0-----3-----x------------------|


[Chorus]


e|-8---5------8-7--5---7-8-7-5-7-8-----------8------------8------------------|

B|-5------5---------5---------------8---8---------12--8--12-12-10-8----------|

G|-5------5-------------------------9-------9--------------------------------|

D|---------------------------------------------------------------------------|

A|-0-0--7--7-----0-------7---------------------------------------------------|

E|-----x------x-------x--------x----9-9-x-9--9-x----8--x--------x------------|


e|-1-3/8-8-8---1-1-3/8-8-8---7--8-7-8-7----7--8-7-7-7h8-7-5-7-------------|

B|-1---------------1------------------------8--------------8--------------|

G|-2---------------2------------------------------0--------0--------------|

D|------------------------------------------------------------------------|

A|---------------------------------7--------------------------------------|

E|-1---x----8-x---1--x-----8-x------x-------x------x------------x---------|


e|-8---5------8-7--5---7-8-7-5-7-8-----------8------------8----------------|

B|-5------5---------5---------------8---8---------12--8--12-12-10-8--------|

G|-5------5-------------------------9-------9------------------------------|

D|-------------------------------------------------------------------------|

A|-0-0--7--7-----0-------7-------------------------------------------------|

E|-----x------x-------x--------x----9-9-x-9--9-x----8--x--------x----------|


e|-1-3/5-5-5---1-1-3/5-5-5---7--8-7-8-7----7--8-7-8-7-5--5-----------|

B|-1---------------1------------------------8------------------------|

G|-2---------------2------------------------------0------------------|

D|-------------------------------------------------------------------|

A|--------3--------------3--------7----------------------------------|

E|-1---x------x---1--x-------x------x-------x------x--------x--------|


[Verse 2]


e|-----------------------------------0-------------0-----------------|

B|---5----5--------5----5------------3-/5-3-------3-/5-/6-5-3-1------|

G|---5-7---7-5----5-7---7-5--5-0----------5--0-----------------------|

D|----------------------------9----------5-------------5-------------|

A|-0------7------0------7--------3-------------3---------------------|

E|------x-------x-----x-------x-------x-------x----x----------x------|


e|----0--12-12----------------------------------------------------/5-3-0------|

B|-------------------------8-10-8--8------------------------1h3---------3-1---|

G|-2--------------2----2---------9--9-7-9-7-9-7---7h9-7-0---------------------|

D|-3--------------3---3---------------------------10--------------------------|

A|--------------------3-------------------------------------------------------|

E|-1---x------x-1--x--------0-------x---7--------------x---3---x--------------|


e|--------------------------------------------------------------7-7h8-7-5-7--|

B|-5-5--8-6-5-----5-5---8-6--5--------------------------5-5---8--------------|

G|-5-5--------7-5-5-5------------9--9----12-10-9-------4-4---0---------------|

D|---------------------------------10-10-----------12-10---------------------|

A|-0----7----------0-----7----------------10---------------------------------|

E|-----x-------x--------x-----x---8-----x----------x------3-3----------------|


[Chorus]


e|-8---5------8-7--5---7-8-7-5-7-8-----------8------------8----------------|

B|-5------5---------5---------------8---8---------12--8--12-12-10-8--------|

G|-5------5-------------------------9-------9------------------------------|

D|-------------------------------------------------------------------------|

A|-0-0--7--7-----0-------7-------------------------------------------------|

E|-----x------x-------x--------x----9-9-x-9--9-x----8--x--------x----------|


e|-1-3/8-8-8---1-1-3/8-8-8---7--8-7-8-7----7--8-7-7-7h8-7-5-7-------------|

B|-1---------------1------------------------8--------------8--------------|

G|-2---------------2------------------------------0--------0--------------|

D|------------------------------------------------------------------------|

A|---------------------------------7--------------------------------------|

E|-1---x----8-x---1--x-----8-x------x-------x------x------------x---------|


e|-8---5------8-7--5---7-8-7-5-7-8-----------8------------8------------------|

B|-5------5---------5---------------8---8---------12--8--12-12-10-8----------|

G|-5------5-------------------------9-------9--------------------------------|

D|---------------------------------------------------------------------------|

A|-0-0--7--7-----0-------7---------------------------------------------------|

E|-----x------x-------x--------x----9-9-x-9--9-x----8--x--------x------------|


e|-1-3/5-5-5---1-1-3/5-5-5---7--8-7-8-7----7--8-7-8-7-5--5-----------|

B|-1---------------1------------------------8------------------------|

G|-2---------------2------------------------------0------------------|

D|-------------------------------------------------------------------|

A|--------3--------------3--------7----------------------------------|

E|-1---x------x---1--x-------x------x-------x------x--------x--------|


[Outro]


e|----5----5---5-------------8------8---8------------------1----1--1----------|

B|---5-----5---5------------8-------8---8------------------1----1--1----------|

G|---5-----5---5------------9-------9---9------------------2----2--2----------|

D|-----------------7-5--------------------------------------------------3-2---|

A|-0---7-7---0--0----7-5-----10-10-------12-10-----------3-3----------3-2-----|

E|--------------------------8-----------8--8-------12-10-1--------1-1---------|


e|--------------------------------|

B|--0----0------3----3------------|

G|--1----1------4----4------------|

D|--2----2------5----5------------|

A|----2-2---------5-5-------------|

E|-0-------0-/3-------------------|


e|---------------------------------------------8-------8---------------------------|

B|-13-10-----13-12--10-12-13-12-10-12--8-8------12--8-12-13-12-10------------------|

G|-----------9--------------------------------9-----9------------------------12----|

D|---------------------------------------------------------------------------------|

A|--0----------------0--------12-10-------------------------------12-10------------|

E|-------12--------------------------12-10-8----8-------8--------------12-10-------|


e|-------------------------------------------------7-8-7-8-7--7-8-7-8-7-5-5--------|

B|----10/13-13-13-------10/13-13-13---------8----------8-8-------------------------|

G|-10---------------10-10-----------10-9-------7------------0--------0-------------|

D|------------------------------------------10-7-----------------------------------|

A|-8-------------12-----8-------------------------7---------------------------0----|

E|---------------------------------------------------------------------------------|


***************


|/  slide up

|h  hammer on

|X dead note


***************