Closer tab

 by The Chainsmokers

[Verse 1]

e|----------------------------------------------------------------------|

B|--3---3-3-3-3-3-0-0----------3-3-3-5-0-0------------------------------|

G|--------------------------2-2-0------------------2-2---4-4-4-2--------|

D|----------------------------------------------------------------------|

A|----------------------------------------------------------------------|

E|----------------------------------------------------------------------|


Hey, I was doing just fine before I met you

I drink too much and that's an issue

But I'm OK


e|----------------------------------------------------------------|

B|--3---3-3-3-0-0-------------------------------------------------|

G|--------------------2-2-0--4-4-4-2-2-0-0--------4/2-------------|

D|-------------------------------------------------0-0------------|

A|----------------------------------------------------------------|

E|----------------------------------------------------------------|

Hey, you tell your friends it was nice to meet them

But I hope I never see them again


[Pre-chorus 1]

e|----------------------------------------------------------------------------|

B|--3-3-3-3-5-5--3-3-3-3-3-3-3-3-5-5--3--3-3--4-4--3-3-3-3-3-3-3-3-3--5-5--3--|

G|----------------------------------------------------------------------------|

D|----------------------------------------------------------------------------|

A|----------------------------------------------------------------------------|

E|----------------------------------------------------------------------------|

I know it breaks your heart

Moved to the city in a broke-down car

And four years, no calls

Now you're looking pretty in a hotel bar


e|--------------------------------------------------------------|

B|--10-7-5-7-0-7-5----------10-10-7-5-7-0-7-5/3-----------------|

G|--------------------------------------------------------------|

D|--------------------------------------------------------------|

A|--------------------------------------------------------------|

E|--------------------------------------------------------------|

And I, I, I, I, I can't stop

No, I, I, I, I, I can't stop


[Chorus  1]

e|---------------------------------------------------------------------------------|

B|--5-5-9-3-5-5-7-3-5-5-7-3-5-5-3-3-5-5-3-5-5-3-5-5-7-3-5-5-7----------------------|

G|---------------------------------------------------------------------------------|

D|---------------------------------------------------------------------------------|

A|---------------------------------------------------------------------------------|

E|---------------------------------------------------------------------------------|

So, baby, pull me closer

In the back seat of your Rover

That I know you can't afford

Bite that tattoo on your shoulder


e|----------------------------------------------------------------------------------------|

B|--3-5-5-7-3-5-5-7-3-5-5-7-3-5-5-3-3-5-5-3-3-5-5-3-3-7-7-3-3-5-5-3-----------------------|

G|----------------------------------------------------------------------------------------|

D|----------------------------------------------------------------------------------------|

A|----------------------------------------------------------------------------------------|

E|----------------------------------------------------------------------------------------|

Pull the sheets right off the corner

Of that mattress that you stole

From your roommate back in Boulder

We ain't ever getting older


[Post-chorus]

e|-----------------------------------------------------------------------------------|

B|--7-7-5-5-7-7-5-5-9-9-5-5-7-7-5---3-9-9-5-5-9-9-5-5-7-7-5--------------------------|

G|-----------------------------------------------------------------------------------|

D|-----------------------------------------------------------------------------------|

A|-----------------------------------------------------------------------------------|

E|-----------------------------------------------------------------------------------|

We ain't ever getting older

We ain't ever getting older


[Verse 2]

e|--3--3-3-3-0-0-0---------3-3-5-0-0-------0-------0--------------|

B|----------------------3-3-1---------------3-3----1-3----3-------|

G|----------------------------------------------------------------|

D|----------------------------------------------------------------|

A|----------------------------------------------------------------|

E|----------------------------------------------------------------|

You look as good as the day I met you

I forget just why I left you,

I was insane


e|--3--3-3-3-3-0-0---------3-3-5-0-0------------------------|

B|---------------------3-3-1---------------3-3-5--5-3-------|

G|----------------------------------------------------------|

D|----------------------------------------------------------|

A|----------------------------------------------------------|

E|----------------------------------------------------------|

Stay and play that Blink-182 song

That we beat to death in Tucson, OK


[Pre-chorus 2]

e|--3-3-3-3-5-5--3-3-3-3-3-3-3-3-5-5--3--3-3--4-4--3-3-3-3-3-3-3-3-3--5-5--3--|

B|----------------------------------------------------------------------------|

G|----------------------------------------------------------------------------|

D|----------------------------------------------------------------------------|

A|----------------------------------------------------------------------------|

E|----------------------------------------------------------------------------|

I know it breaks your heart

Moved to the city in a broke-down car

And four years, no call

Now I'm looking pretty in a hotel bar


e|--5-7-5-3---7-5-3-5-7-5-3---7-5/3-------------|

B|------------3-------------------3-------------|

G|----------------------------------------------|

D|----------------------------------------------|

A|----------------------------------------------|

E|----------------------------------------------|

And I, I, I, I, I can't stop

No, I, I, I, I, I can't stop


[Chorus 2]


e|--5-5-9-3-5-5-7-3-5-5-7-3-5-5-3-3-5-5-3-5-5-3-5-5-7-3-5-5-7---------------------|

B|--------------------------------------------------------------------------------|

G|--------------------------------------------------------------------------------|

D|--------------------------------------------------------------------------------|

A|--------------------------------------------------------------------------------|

E|--------------------------------------------------------------------------------|

So, baby, pull me closer

In the back seat of your Rover

That I know you can't afford

Bite that tattoo on your shoulder


e|--3-5-5-7-3-5-5-7-3-5-5-7-3-5-5-3-3-5-5-3-3-5-5-3-3-7-7-3-3-5-5-3-----------------------|

B|----------------------------------------------------------------------------------------|

G|----------------------------------------------------------------------------------------|

D|----------------------------------------------------------------------------------------|

A|----------------------------------------------------------------------------------------|

E|----------------------------------------------------------------------------------------|

Pull the sheets right off the corner

Of that mattress that you stole

From your roommate back in Boulder

We ain't ever getting older


[Post-chorus]

e|-----------------------------------------------------------------------------------|

B|--7-7-5-5-7-7-5-5-9-9-5-5-7-7-5---3-9-9-5-5-9-9-5-5-7-7-5--------------------------|

G|-----------------------------------------------------------------------------------|

D|-----------------------------------------------------------------------------------|

A|-----------------------------------------------------------------------------------|

E|-----------------------------------------------------------------------------------|

We ain't ever getting older

We ain't ever getting older


[Bridge]

e|------------------------5-5-9-9-5-5-7-7-5----------------------5-5-9-9-5-5-7-7-9--|

B|--5-9-9-5-5-7-7-5-------------------------5-9-9-5-5-7-7-5-------------------------|

G|----------------------------------------------------------------------------------|

D|----------------------------------------------------------------------------------|

A|----------------------------------------------------------------------------------|

E|----------------------------------------------------------------------------------|

We ain't ever getting older

[No, we ain't ever getting older]

We ain't ever getting older

[No, we ain't ever getting older]


e|------------------------5-5-9-9-5-5-7-7-9-----------------------5-5-9-9-5-5-7-7-9-7-9--|

B|--5-9-9-5-5-7-7-5--------------------------5-9-9-5-5-7-7-5-----------------------------|

G|---------------------------------------------------------------------------------------|

D|---------------------------------------------------------------------------------------|

A|---------------------------------------------------------------------------------------|

E|---------------------------------------------------------------------------------------|

We ain't ever getting older

[No we ain't ever getting older]

We ain't ever getting older

[No, we ain't ever getting older]


[Post-chorus]

e|----------------------------------------------------------------------------------|

B|-7-7-5-5-7-7-5-5-9-9-5-5-7-7-5---3-9-9-5-5-9-9-5-5-7-7-5--------------------------|

G|----------------------------------------------------------------------------------|

D|----------------------------------------------------------------------------------|

A|----------------------------------------------------------------------------------|

E|----------------------------------------------------------------------------------|

We ain't ever getting older

We ain't ever getting older




************************************


| /  Slide up


************************************