Perfect Acoustic tab

 by Ed Sheeran

[VERSE] x2

"I found a love for me..."

              G                           Em

e|-------3------------3-----|-------3------------3-----|

B|-----3---3--------3---3---|-----3---3--------3---3---|

G|---0-------0----0-------0-|---0-------0----0-------0-|

D|--------------------------|--------------------------|

A|--------------------------|--------------------------|

E|-3------------3-----------|-0------------0-----------|


             C9                              D-Dsus4

e|-------3------------3-----|--------2h3-2-------------2---------|

B|-----3---3--------3---3---|------3-------3---------3---3-------|

G|---0-------0----0-------0-|----2-----------------2-------2-----|

D|--------------------------|--0-----------------0---------------|

A|-3------------3-----------|------------------------------------|

E|--------------------------|------------------------------------|


[PRE-CHORUS] x1

"Cause we were just kids when we fell in love..."


              G                           Em

e|-------3------------3-----|-------3------------3-----|

B|-----3---3--------3---3---|-----3---3--------3---3---|

G|---0-------0----0-------0-|---0-------0----0-------0-|

D|--------------------------|--------------------------|

A|--------------------------|--------------------------|

E|-3------------3-----------|-0------------0-----------|


             C9                              G-Dsus4

e|-------3------------3-----|-------3------ ------2h3-2-----------|

B|-----3---3--------3---3---|-----3---3---------3-------3---------|

G|---0-------0----0-------0-|---0-------0-----2-------------------|

D|--------------------------|---------------0---------------------|

A|-3------------3-----------|-------------------------------------|

E|--------------------------|-3-----------------------------------|


              G                           Em

e|-------3------------3-----|-------3------------3-----|

B|-----3---3--------3---3---|-----3---3--------3---3---|

G|---0-------0----0-------0-|---0-------0----0-------0-|

D|--------------------------|--------------------------|

A|--------------------------|--------------------------|

E|-3------------3-----------|-0------------0-----------|


             C9                              D-Dsus4

e|-------3------------3-----|--------2h3-2--------------|

B|-----3---3--------3---3---|------3-------3------------|

G|---0-------0----0-------0-|----2----------------------|

D|--------------------------|--0-------------0----------|

A|-3------------3-----------|---------------------------|

E|--------------------------|---------------------------|


[CHORUS] x4

"Baby I’m dancing in the dark, with you between my arms..."


        Em             C9            G             D

e|-------3-----|-------3-----|-------3-----|-------2-----|

B|-----3---3---|-----3---3---|-----3---3---|-----3---3---|

G|---0-------0-|---0-------0-|---0-------0-|---2-------2-|

D|-------------|-------------|-------------|-0-----------|

A|-------------|-3-----------|-------------|-------------|

E|-0-----------|-------------|-3-----------|-------------|


[FILL

        G           D/F#          Em             D         C9            D

e|------------|------------|------------|------------|------------|------------|

B|-----3------|-----3------|-----3------|-----3------|-----3------|-----3------|

G|---0--------|---2--------|---0--------|---2--------|---0--------|---2--------|

D|------------|------------|------------|-0----------|------------|-0----------|

A|------------|------------|------------|------------|-3----------|------------|

E|-3----------|-2----------|-0----------|------------|------------|------------|


[VERSE] x2

"Well I found a woman, stronger than anyone I know..."


              G                           Em

e|-------3------------3-----|-------3------------3-----|

B|-----3---3--------3---3---|-----3---3--------3---3---|

G|---0-------0----0-------0-|---0-------0----0-------0-|

D|--------------------------|--------------------------|

A|--------------------------|--------------------------|

E|-3------------3-----------|-0------------0-----------|


             C9                              D-Dsus4

e|-------3------------3-----|--------2h3-2-------------2---------|

B|-----3---3--------3---3---|------3-------3---------3---3-------|

G|---0-------0----0-------0-|----2-----------------2-------2-----|

D|--------------------------|--0-----------------0---------------|

A|-3------------3-----------|------------------------------------|

E|--------------------------|------------------------------------|


[PRE-CHORUS] x1

"We are still kids, but we’re so in love, fighting against all odds..."


              G                           Em

e|-------3------------3-----|-------3------------3-----|

B|-----3---3--------3---3---|-----3---3--------3---3---|

G|---0-------0----0-------0-|---0-------0----0-------0-|

D|--------------------------|--------------------------|

A|--------------------------|--------------------------|

E|-3------------3-----------|-0------------0-----------|


             C9                              G-Dsus4

e|-------3------------3-----|-------3------ ------2h3-2-----------|

B|-----3---3--------3---3---|-----3---3---------3-------3---------|

G|---0-------0----0-------0-|---0-------0-----2-------------------|

D|--------------------------|---------------0---------------------|

A|-3------------3-----------|-------------------------------------|

E|--------------------------|-3-----------------------------------|


              G                           Em

e|-------3------------3-----|-------3------------3-----|

B|-----3---3--------3---3---|-----3---3--------3---3---|

G|---0-------0----0-------0-|---0-------0----0-------0-|

D|--------------------------|--------------------------|

A|--------------------------|--------------------------|

E|-3------------3-----------|-0------------0-----------|


             C9                              D-Dsus4

e|-------3------------3-----|--------2h3-2--------------|

B|-----3---3--------3---3---|------3-------3------------|

G|---0-------0----0-------0-|----2----------------------|

D|--------------------------|--0-------------0----------|

A|-3------------3-----------|---------------------------|

E|--------------------------|---------------------------|


[CHORUS] x4

"Baby I’m dancing in the dark, with you between my arms..."


        Em             C9            G             D

e|-------3-----|-------3-----|-------3-----|-------2-----|

B|-----3---3---|-----3---3---|-----3---3---|-----3---3---|

G|---0-------0-|---0-------0-|---0-------0-|---2-------2-|

D|-------------|-------------|-------------|-0-----------|

A|-------------|-3-----------|-------------|-------------|

E|-0-----------|-------------|-3-----------|-------------|


[BRIDGE/SOLO] x1

e|-----------------|-----------------|---------------------------|------------------|

B|-----------------|-----------------|---------------------------|------------------|

G|-----------------|-----------------|---------------------------|------------------|

D|-----5--7-7/9----|-9-9\7-5-7-8p7p5-|-----5--7-7/9---7-5-7-7/10-|-10\9-7-5-7--5--4-|

A|-5h7-------------|-----------------|-5h7-----------------------|------------------|

E|-----------------|-----------------|---------------------------|------------------|


[CHORUS] x5

"Baby I’m dancing in the dark, with you between my arms..."


        Em             C9            G             D

e|-------3-----|-------3-----|-------3-----|-------2-----|

B|-----3---3---|-----3---3---|-----3---3---|-----3---3---|

G|---0-------0-|---0-------0-|---0-------0-|---2-------2-|

D|-------------|-------------|-------------|-0-----------|

A|-------------|-3-----------|-------------|-------------|

E|-0-----------|-------------|-3-----------|-------------|


[FILL]

        G           D/F#          Em             D         C9             D          G

e|------------|------------|------------|------------|------------|------------|--3------|

B|-----3------|-----3------|-----3------|-----3------|-----3------|-----3------|--3------|

G|---0--------|---2--------|---0--------|---2--------|---0--------|---2--------|--0------|

D|------------|------------|------------|-0----------|------------|-0----------|--0------|

A|------------|------------|------------|------------|-3----------|------------|--2------|

E|-3----------|-2----------|-0----------|------------|------------|------------|--3------|



************************************


| h   Hammer-on

| p   Pull-off

| /   Slide up

| \   Slide down


************************************