Lean On Me tab

 by Bill Withers

Tuning: Standard

              1st Ending : Repeat           2nd Ending

e|-----------0-1--1-0------------0-0---:--0----------------------------------|

B|--1--1--3------------3--1--1-3-----3-:-----0---1---------------------------|

G|---------------------------------------------------------------------------|

D|---------------------------------------------------------------------------|

A|---------------------------------------------------------------------------|

E|---------------------------------------------------------------------------|


e|--------0-1---1-0----------------0-0---------------0-1-1-0-----------------|

B|--1--3--------------3-1-----1-3-------3---1--1--3-----------3-1------------|

G|---------------------------------------------------------------------------|

D|---------------------------------------------------------------------------|

A|---------------------------------------------------------------------------|

E|---------------------------------------------------------------------------|


e|-------0----------0-------0-0----------------------0-0---------------------|

B|-1-3------0--1-1-----3-1-------3-1--1-0-------1-3-------3--3---------------|

G|-----------------------------------------2-0-------------------------------|

D|---------------------------------------------------------------------------|

A|---------------------------------------------------------------------------|

E|---------------------------------------------------------------------------|

                                                         D.S. al fine

E|----0-0--------------------0------------------ --:-0-----0 0---------------|

B|--1-------3-1--1-0-----------3--1--1--0--3---1---:----1--------3--1--------|

G|----------------------2-0------------------------:-------------------------|

D|-------------------------------------------------:-------------------------|

A|-------------------------------------------------:-------------------------|

E|-------------------------------------------------:-------------------------|


e|--------------------0--0-------------0---------------------0---------------|

B|-1--1--0-------1-3--------3--1--1--3---3-1--3-1-0------1-3-----------------|

G|----------2-0-------------------------------------2-0----------------------|

D|---------------------------------------------------------------------------|

A|---------------------------------------------------------------------------|

E|---------------------------------------------------------------------------|





************************************


| /   slide up

| \   slide down

| h   hammer-on

| p   pull-off

| ~   vibrato

| +   harmonic

| x   Mute note

| b   Bend

| pb  Pre-bend

| br  Bend release

| pbr Pre-bend release

| brb Bend release bend


************************************